  0
SECTION
  2
HEADER
  9
$ACADVER
  1
AC1009
  9
$DWGCODEPAGE
  3
ansi_1252
  9
$INSBASE
 10
0.0
 20
0.0
 30
0.0
  9
$EXTMIN
 10
13.88976917504307
 20
23.36199999931014
 30
0.0
  9
$EXTMAX
 10
214.3442308249569
 20
320.3620000006898
 30
0.0
  9
$LIMMIN
 10
0.0
 20
0.0
  9
$LIMMAX
 10
12.0
 20
9.0
  9
$ORTHOMODE
 70
     0
  9
$REGENMODE
 70
     1
  9
$FILLMODE
 70
     1
  9
$QTEXTMODE
 70
     0
  9
$MIRRTEXT
 70
     1
  9
$DRAGMODE
 70
     2
  9
$LTSCALE
 40
1.0
  9
$OSMODE
 70
    37
  9
$ATTMODE
 70
     1
  9
$TEXTSIZE
 40
0.2
  9
$TRACEWID
 40
0.05
  9
$TEXTSTYLE
  7
STANDARD
  9
$CLAYER
  8
0
  9
$CELTYPE
  6
BYLAYER
  9
$CECOLOR
 62
   256
  9
$DIMSCALE
 40
1.0
  9
$DIMASZ
 40
0.18
  9
$DIMEXO
 40
0.0625
  9
$DIMDLI
 40
0.38
  9
$DIMRND
 40
0.0
  9
$DIMDLE
 40
0.0
  9
$DIMEXE
 40
0.18
  9
$DIMTP
 40
0.0
  9
$DIMTM
 40
0.0
  9
$DIMTXT
 40
0.18
  9
$DIMCEN
 40
0.09
  9
$DIMTSZ
 40
0.0
  9
$DIMTOL
 70
     0
  9
$DIMLIM
 70
     0
  9
$DIMTIH
 70
     1
  9
$DIMTOH
 70
     1
  9
$DIMSE1
 70
     0
  9
$DIMSE2
 70
     0
  9
$DIMTAD
 70
     0
  9
$DIMZIN
 70
     0
  9
$DIMBLK
  1

  9
$DIMASO
 70
     1
  9
$DIMSHO
 70
     1
  9
$DIMPOST
  1

  9
$DIMAPOST
  1

  9
$DIMALT
 70
     0
  9
$DIMALTD
 70
     2
  9
$DIMALTF
 40
25.4
  9
$DIMLFAC
 40
1.0
  9
$DIMTOFL
 70
     0
  9
$DIMTVP
 40
0.0
  9
$DIMTIX
 70
     0
  9
$DIMSOXD
 70
     0
  9
$DIMSAH
 70
     0
  9
$DIMBLK1
  1

  9
$DIMBLK2
  1

  9
$DIMSTYLE
  2
STANDARD
  9
$DIMCLRD
 70
     0
  9
$DIMCLRE
 70
     0
  9
$DIMCLRT
 70
     0
  9
$DIMTFAC
 40
1.0
  9
$DIMGAP
 40
0.09
  9
$LUNITS
 70
     2
  9
$LUPREC
 70
     4
  9
$SKETCHINC
 40
0.1
  9
$FILLETRAD
 40
0.5
  9
$AUNITS
 70
     0
  9
$AUPREC
 70
     0
  9
$MENU
  1
.
  9
$ELEVATION
 40
0.0
  9
$PELEVATION
 40
0.0
  9
$THICKNESS
 40
0.0
  9
$LIMCHECK
 70
     0
  9
$CHAMFERA
 40
0.0
  9
$CHAMFERB
 40
0.0
  9
$SKPOLY
 70
     0
  9
$TDCREATE
 40
2454910.5
  9
$TDUPDATE
 40
2459584.745673889
  9
$TDINDWG
 40
0.0000000116
  9
$TDUSRTIMER
 40
0.0000000116
  9
$USRTIMER
 70
     1
  9
$ANGBASE
 50
0.0
  9
$ANGDIR
 70
     0
  9
$PDMODE
 70
     0
  9
$PDSIZE
 40
0.0
  9
$PLINEWID
 40
0.0
  9
$COORDS
 70
     1
  9
$SPLFRAME
 70
     0
  9
$SPLINETYPE
 70
     6
  9
$SPLINESEGS
 70
     8
  9
$ATTDIA
 70
     0
  9
$ATTREQ
 70
     1
  9
$HANDLING
 70
     1
  9
$HANDSEED
  5
D3
  9
$SURFTAB1
 70
     6
  9
$SURFTAB2
 70
     6
  9
$SURFTYPE
 70
     6
  9
$SURFU
 70
     6
  9
$SURFV
 70
     6
  9
$UCSNAME
  2

  9
$UCSORG
 10
0.0
 20
0.0
 30
0.0
  9
$UCSXDIR
 10
1.0
 20
0.0
 30
0.0
  9
$UCSYDIR
 10
0.0
 20
1.0
 30
0.0
  9
$PUCSNAME
  2

  9
$PUCSORG
 10
0.0
 20
0.0
 30
0.0
  9
$PUCSXDIR
 10
1.0
 20
0.0
 30
0.0
  9
$PUCSYDIR
 10
0.0
 20
1.0
 30
0.0
  9
$USERI1
 70
     0
  9
$USERI2
 70
     0
  9
$USERI3
 70
     0
  9
$USERI4
 70
     0
  9
$USERI5
 70
     0
  9
$USERR1
 40
0.0
  9
$USERR2
 40
0.0
  9
$USERR3
 40
0.0
  9
$USERR4
 40
0.0
  9
$USERR5
 40
0.0
  9
$WORLDVIEW
 70
     1
  9
$SHADEDGE
 70
     3
  9
$SHADEDIF
 70
    70
  9
$TILEMODE
 70
     1
  9
$MAXACTVP
 70
    64
  9
$PLIMCHECK
 70
     0
  9
$PEXTMIN
 10
1.000000000000000E+20
 20
1.000000000000000E+20
 30
1.000000000000000E+20
  9
$PEXTMAX
 10
-1.000000000000000E+20
 20
-1.000000000000000E+20
 30
-1.000000000000000E+20
  9
$PLIMMIN
 10
0.0
 20
0.0
  9
$PLIMMAX
 10
12.0
 20
9.0
  9
$UNITMODE
 70
     0
  9
$VISRETAIN
 70
     1
  9
$PLINEGEN
 70
     0
  9
$PSLTSCALE
 70
     1
  0
ENDSEC
  0
SECTION
  2
TABLES
  0
TABLE
  2
VPORT
 70
     1
  0
VPORT
  2
*ACTIVE
 70
     0
 10
0.0
 20
0.0
 11
1.0
 21
1.0
 12
10.42990654205607
 22
4.5
 13
0.0
 23
0.0
 14
0.5
 24
0.5
 15
0.5
 25
0.5
 16
0.0
 26
0.0
 36
1.0
 17
0.0
 27
0.0
 37
0.0
 40
9.0
 41
1.972972972850329
 42
50.0
 43
0.0
 44
0.0
 50
0.0
 51
0.0
 71
     0
 72
   100
 73
     1
 74
     3
 75
     0
 76
     0
 77
     0
 78
     0
  0
ENDTAB
  0
TABLE
  2
LTYPE
 70
     2
  0
LTYPE
  2
CONTINUOUS
 70
     0
  3
Solid line
 72
    65
 73
     0
 40
0.0
  0
LTYPE
  2
CONTINUOUS2
 70
     0
  3
Solid Line
 72
    65
 73
     0
 40
0.0
  0
ENDTAB
  0
TABLE
  2
LAYER
 70
     3
  0
LAYER
  2
0
 70
     0
 62
     7
  6
CONTINUOUS
  0
LAYER
  2
AM_0
 70
     0
 62
     7
  6
CONTINUOUS
  0
LAYER
  2
AM_3
 70
     0
 62
     6
  6
CONTINUOUS
  0
ENDTAB
  0
TABLE
  2
STYLE
 70
     1
  0
STYLE
  2
STANDARD
 70
     0
 40
0.0
 41
1.0
 50
0.0
 71
     0
 42
0.2
  3
txt
  4

  0
ENDTAB
  0
TABLE
  2
VIEW
 70
     0
  0
ENDTAB
  0
TABLE
  2
UCS
 70
     0
  0
ENDTAB
  0
TABLE
  2
APPID
 70
     1
  0
APPID
  2
ACAD
 70
     0
  0
ENDTAB
  0
TABLE
  2
DIMSTYLE
 70
     1
  0
DIMSTYLE
  2
STANDARD
 70
     0
  3

  4

  5

  6

  7

 40
1.0
 41
0.18
 42
0.0625
 43
0.38
 44
0.18
 45
0.0
 46
0.0
 47
0.0
 48
0.0
140
0.18
141
0.09
142
0.0
143
25.4
144
1.0
145
0.0
146
1.0
147
0.09
 71
     0
 72
     0
 73
     1
 74
     1
 75
     0
 76
     0
 77
     0
 78
     0
170
     0
171
     2
172
     0
173
     0
174
     0
175
     0
176
     0
177
     0
178
     0
  0
ENDTAB
  0
ENDSEC
  0
SECTION
  2
BLOCKS
  0
BLOCK
  8
0
  2
$MODEL_SPACE
 70
     0
 10
0.0
 20
0.0
 30
0.0
  3
$MODEL_SPACE
  1

  0
ENDBLK
  5
21
  8
0
  0
BLOCK
 67
     1
  8
0
  2
$PAPER_SPACE
 70
     0
 10
0.0
 20
0.0
 30
0.0
  3
$PAPER_SPACE
  1

  0
ENDBLK
  5
1D
 67
     1
  8
0
  0
ENDSEC
  0
SECTION
  2
ENTITIES
  0
POLYLINE
  5
70
  8
AM_0
 66
     1
 10
0.0
 20
0.0
 30
0.0
 70
     1
  0
VERTEX
  5
83
  8
AM_0
 10
114.1170000000383
 20
313.5120000007011
 30
0.0
 42
0.4142135623730951
  0
VERTEX
  5
84
  8
AM_0
 10
110.9670000000383
 20
310.362000000701
 30
0.0
 42
0.4142135623730951
  0
VERTEX
  5
85
  8
AM_0
 10
114.1170000000383
 20
307.2120000007009
 30
0.0
 42
0.4142135623730951
  0
VERTEX
  5
86
  8
AM_0
 10
117.2670000000383
 20
310.362000000701
 30
0.0
 42
0.4142135623730951
  0
SEQEND
  5
C8
  8
AM_0
  0
POLYLINE
  5
71
  8
AM_0
 66
     1
 10
0.0
 20
0.0
 30
0.0
 70
     1
  0
VERTEX
  5
87
  8
AM_0
 10
114.1169999999505
 20
120.3619999993242
 30
0.0
 42
0.4142135623730951
  0
VERTEX
  5
88
  8
AM_0
 10
111.1169999999505
 20
117.3619999993242
 30
0.0
 42
0.4142135623730951
  0
VERTEX
  5
89
  8
AM_0
 10
114.1169999999505
 20
114.3619999993242
 30
0.0
 42
0.4142135623730951
  0
VERTEX
  5
8A
  8
AM_0
 10
117.1169999999505
 20
117.3619999993242
 30
0.0
 42
0.4142135623730951
  0
SEQEND
  5
C9
  8
AM_0
  0
POLYLINE
  5
72
  8
AM_0
 66
     1
 10
0.0
 20
0.0
 30
0.0
 70
     1
  0
VERTEX
  5
8B
  8
AM_0
 10
114.1170000000385
 20
36.36199999931014
 30
0.0
 42
0.4142135623730951
  0
VERTEX
  5
8C
  8
AM_0
 10
111.1170000000385
 20
33.36199999931014
 30
0.0
 42
0.4142135623730951
  0
VERTEX
  5
8D
  8
AM_0
 10
114.1170000000385
 20
30.36199999931014
 30
0.0
 42
0.4142135623730951
  0
VERTEX
  5
8E
  8
AM_0
 10
117.1170000000385
 20
33.36199999931014
 30
0.0
 42
0.4142135623730951
  0
SEQEND
  5
CA
  8
AM_0
  0
POLYLINE
  5
73
  8
AM_0
 66
     1
 10
0.0
 20
0.0
 30
0.0
 70
     1
  0
VERTEX
  5
8F
  8
AM_0
 10
114.1169999999951
 20
210.862000000708
 30
0.0
 42
0.4142135623730951
  0
VERTEX
  5
90
  8
AM_0
 10
111.1169999999951
 20
207.862000000708
 30
0.0
 42
0.4142135623730951
  0
VERTEX
  5
91
  8
AM_0
 10
114.1169999999951
 20
204.862000000708
 30
0.0
 42
0.4142135623730951
  0
VERTEX
  5
92
  8
AM_0
 10
117.1169999999951
 20
207.862000000708
 30
0.0
 42
0.4142135623730951
  0
SEQEND
  5
CB
  8
AM_0
  0
POLYLINE
  5
74
  8
AM_0
 66
     1
 10
0.0
 20
0.0
 30
0.0
 70
     1
  0
VERTEX
  5
93
  8
AM_0
 10
108.1169999998775
 20
100.8129618930149
 30
0.0
  0
VERTEX
  5
94
  8
AM_0
 10
108.1169999998561
 20
64.91103810440111
 30
0.0
 42
0.4931454260307941
  0
VERTEX
  5
95
  8
AM_0
 10
107.8063398280781
 20
62.55133982694545
 30
0.0
 42
0.4931454260307452
  0
VERTEX
  5
96
  8
AM_0
 10
110.1660381055339
 20
62.86199999872329
 30
0.0
  0
VERTEX
  5
97
  8
AM_0
 10
118.0679618941787
 20
62.86199999871965
 30
0.0
 42
0.4931454260314762
  0
VERTEX
  5
98
  8
AM_0
 10
120.427660171635
 20
62.55133982693772
 30
0.0
 42
0.4931454260314764
  0
VERTEX
  5
99
  8
AM_0
 10
120.1169999998558
 20
64.91103810439452
 30
0.0
  0
VERTEX
  5
9A
  8
AM_0
 10
120.1169999998757
 20
100.8129618930085
 30
0.0
 42
0.4931454260312712
  0
VERTEX
  5
9B
  8
AM_0
 10
120.4276601716585
 20
103.1726601704643
 30
0.0
 42
0.4931454260313686
  0
VERTEX
  5
9C
  8
AM_0
 10
118.067961894202
 20
102.8619999986876
 30
0.0
  0
VERTEX
  5
9D
  8
AM_0
 10
110.1660381055556
 20
102.8619999986928
 30
0.0
 42
0.4931454260311703
  0
VERTEX
  5
9E
  8
AM_0
 10
107.8063398280982
 20
103.1726601704723
 30
0.0
 42
0.4931454260311959
  0
SEQEND
  5
CC
  8
AM_0
  0
POLYLINE
  5
75
  8
AM_0
 66
     1
 10
0.0
 20
0.0
 30
0.0
 70
     1
  0
VERTEX
  5
9F
  8
AM_0
 10
204.3442312879103
 20
249.8687610758649
 30
0.0
 42
-0.3336546878854682
  0
VERTEX
  5
A0
  8
AM_0
 10
123.8876896797272
 20
312.491230656009
 30
0.0
 42
0.8055490044655826
  0
VERTEX
  5
A1
  8
AM_0
 10
104.3463103205276
 20
312.4912306566831
 30
0.0
 42
-0.3336546878854691
  0
VERTEX
  5
A2
  8
AM_0
 10
23.88976871214723
 20
249.8687610759631
 30
0.0
 42
0.4171069090484156
  0
VERTEX
  5
A3
  8
AM_0
 10
13.89025563354156
 20
239.7700787925473
 30
0.0
 42
0.4171069090483908
  0
VERTEX
  5
A4
  8
AM_0
 10
24.08712366887349
 20
229.8707087145771
 30
0.0
 42
0.1268529511299541
  0
VERTEX
  5
A5
  8
AM_0
 10
74.58707598392974
 20
243.747663791096
 30
0.0
 42
0.0707898543903001
  0
VERTEX
  5
A6
  8
AM_0
 10
77.86157119796931
 20
232.9639562564431
 30
0.0
 42
-0.0956501046888656
  0
VERTEX
  5
A7
  8
AM_0
 10
104.1170000000415
 20
117.3620000603527
 30
0.0
  0
VERTEX
  5
A8
  8
AM_0
 10
104.1170000000385
 20
33.36199999931264
 30
0.0
 42
0.4142135623731484
  0
VERTEX
  5
A9
  8
AM_0
 10
114.1170000000378
 20
23.36199999931014
 30
0.0
 42
0.4142135623731484
  0
VERTEX
  5
AA
  8
AM_0
 10
124.1170000000385
 20
33.36199999931128
 30
0.0
  0
VERTEX
  5
AB
  8
AM_0
 10
124.1169999998545
 20
117.3620000603427
 30
0.0
 42
-0.0956501046888782
  0
VERTEX
  5
AC
  8
AM_0
 10
150.3724288020495
 20
232.963956256404
 30
0.0
 42
0.0707898543903031
  0
VERTEX
  5
AD
  8
AM_0
 10
153.6469240160738
 20
243.747663791053
 30
0.0
 42
0.1268529511299511
  0
VERTEX
  5
AE
  8
AM_0
 10
204.1468763311116
 20
229.8707087144801
 30
0.0
 42
0.4171069090485064
  0
VERTEX
  5
AF
  8
AM_0
 10
214.3437443664581
 20
239.7700787924397
 30
0.0
 42
0.4171069090484956
  0
SEQEND
  5
CD
  8
AM_0
  0
POLYLINE
  5
76
  8
AM_0
 66
     1
 10
0.0
 20
0.0
 30
0.0
  0
VERTEX
  5
B0
  8
AM_0
 10
132.8553291260813
 20
268.6003291265091
 30
0.0
 42
0.4142135623733623
  0
VERTEX
  5
B1
  8
AM_0
 10
124.7236017178145
 20
268.6003291265498
 30
0.0
 42
0.414213562373368
  0
VERTEX
  5
B2
  8
AM_0
 10
124.7236017177813
 20
260.4686017182831
 30
0.0
 42
-0.4142135623711081
  0
VERTEX
  5
B3
  8
AM_0
 10
124.7236017177005
 20
239.255398282825
 30
0.0
 42
0.99999999999682
  0
VERTEX
  5
B4
  8
AM_0
 10
132.8553291260301
 20
231.123670874495
 30
0.0
 42
0.4142135840840928
  0
VERTEX
  5
B5
  8
AM_0
 10
132.8553297015515
 20
268.6003297019791
 30
0.0
  0
SEQEND
  5
CE
  8
AM_0
  0
POLYLINE
  5
77
  8
AM_0
 66
     1
 10
0.0
 20
0.0
 30
0.0
  0
VERTEX
  5
B6
  8
AM_0
 10
95.37867029847658
 20
268.600329701996
 30
0.0
 42
0.4142135840839337
  0
VERTEX
  5
B7
  8
AM_0
 10
95.37867087395605
 20
231.1236708745141
 30
0.0
 42
0.9999999999970085
  0
VERTEX
  5
B8
  8
AM_0
 10
103.5103982822946
 20
239.255398282834
 30
0.0
 42
-0.4142135623712159
  0
VERTEX
  5
B9
  8
AM_0
 10
103.5103982822391
 20
260.4686017182961
 30
0.0
 42
0.4142135623732973
  0
VERTEX
  5
BA
  8
AM_0
 10
103.510398282211
 20
268.60032912656
 30
0.0
 42
0.4142135623732215
  0
VERTEX
  5
BB
  8
AM_0
 10
95.37867087394696
 20
268.6003291265271
 30
0.0
  0
SEQEND
  5
CF
  8
AM_0
  0
POLYLINE
  5
78
  8
AM_0
 66
     1
 10
0.0
 20
0.0
 30
0.0
 70
     1
  0
VERTEX
  5
BC
  8
AM_0
 10
114.1170000001273
 20
250.3620000007601
 30
0.0
 42
0.4142135623730951
  0
VERTEX
  5
BD
  8
AM_0
 10
113.6170000001273
 20
249.8620000007601
 30
0.0
 42
0.4142135623730951
  0
VERTEX
  5
BE
  8
AM_0
 10
114.1170000001273
 20
249.3620000007601
 30
0.0
 42
0.4142135623730951
  0
VERTEX
  5
BF
  8
AM_0
 10
114.6170000001273
 20
249.8620000007601
 30
0.0
 42
0.4142135623730951
  0
SEQEND
  5
D0
  8
AM_0
  0
POLYLINE
  5
7A
  8
AM_3
 66
     1
 10
0.0
 20
0.0
 30
0.0
 70
     1
  0
VERTEX
  5
C0
  8
AM_3
 10
114.1170000000051
 20
258.862000000638
 30
0.0
 42
0.4142135623730951
  0
VERTEX
  5
C1
  8
AM_3
 10
105.1170000000051
 20
249.862000000638
 30
0.0
 42
0.4142135623730951
  0
VERTEX
  5
C2
  8
AM_3
 10
114.1170000000051
 20
240.862000000638
 30
0.0
 42
0.4142135623730951
  0
VERTEX
  5
C3
  8
AM_3
 10
123.1170000000051
 20
249.862000000638
 30
0.0
 42
0.4142135623730951
  0
SEQEND
  5
D1
  8
AM_3
  0
POLYLINE
  5
7B
  8
AM_3
 66
     1
 10
0.0
 20
0.0
 30
0.0
 70
     1
  0
VERTEX
  5
C4
  8
AM_3
 10
114.1170000000051
 20
253.0120000006381
 30
0.0
 42
0.4142135623730951
  0
VERTEX
  5
C5
  8
AM_3
 10
110.9670000000051
 20
249.862000000638
 30
0.0
 42
0.4142135623730951
  0
VERTEX
  5
C6
  8
AM_3
 10
114.1170000000051
 20
246.7120000006379
 30
0.0
 42
0.4142135623730951
  0
VERTEX
  5
C7
  8
AM_3
 10
117.2670000000051
 20
249.862000000638
 30
0.0
 42
0.4142135623730951
  0
SEQEND
  5
D2
  8
AM_3
  0
ENDSEC
  0
EOF
