  0
SECTION
  2
HEADER
  9
$ACADVER
  1
AC1014
  9
$ACADMAINTVER
 70
     9
  9
$DWGCODEPAGE
  3
ANSI_1252
  9
$INSBASE
 10
0.0
 20
0.0
 30
0.0
  9
$EXTMIN
 10
87.27916469453179
 20
-64.67070637004464
 30
0.0
  9
$EXTMAX
 10
207.109166510578
 20
59.73929362995537
 30
0.0
  9
$LIMMIN
 10
0.0
 20
0.0
  9
$LIMMAX
 10
12.0
 20
9.0
  9
$ORTHOMODE
 70
     0
  9
$REGENMODE
 70
     1
  9
$FILLMODE
 70
     1
  9
$QTEXTMODE
 70
     0
  9
$MIRRTEXT
 70
     1
  9
$DRAGMODE
 70
     2
  9
$LTSCALE
 40
1.0
  9
$OSMODE
 70
    37
  9
$ATTMODE
 70
     1
  9
$TEXTSIZE
 40
0.2
  9
$TRACEWID
 40
0.05
  9
$TEXTSTYLE
  7
STANDARD
  9
$CLAYER
  8
0
  9
$CELTYPE
  6
BYLAYER
  9
$CECOLOR
 62
   256
  9
$CELTSCALE
 40
1.0
  9
$DELOBJ
 70
     1
  9
$DISPSILH
 70
     0
  9
$DIMSCALE
 40
1.0
  9
$DIMASZ
 40
0.18
  9
$DIMEXO
 40
0.0625
  9
$DIMDLI
 40
0.38
  9
$DIMRND
 40
0.0
  9
$DIMDLE
 40
0.0
  9
$DIMEXE
 40
0.18
  9
$DIMTP
 40
0.0
  9
$DIMTM
 40
0.0
  9
$DIMTXT
 40
0.18
  9
$DIMCEN
 40
0.09
  9
$DIMTSZ
 40
0.0
  9
$DIMTOL
 70
     0
  9
$DIMLIM
 70
     0
  9
$DIMTIH
 70
     1
  9
$DIMTOH
 70
     1
  9
$DIMSE1
 70
     0
  9
$DIMSE2
 70
     0
  9
$DIMTAD
 70
     0
  9
$DIMZIN
 70
     0
  9
$DIMBLK
  1

  9
$DIMASO
 70
     1
  9
$DIMSHO
 70
     1
  9
$DIMPOST
  1

  9
$DIMAPOST
  1

  9
$DIMALT
 70
     0
  9
$DIMALTD
 70
     2
  9
$DIMALTF
 40
25.4
  9
$DIMLFAC
 40
1.0
  9
$DIMTOFL
 70
     0
  9
$DIMTVP
 40
0.0
  9
$DIMTIX
 70
     0
  9
$DIMSOXD
 70
     0
  9
$DIMSAH
 70
     0
  9
$DIMBLK1
  1

  9
$DIMBLK2
  1

  9
$DIMSTYLE
  2
STANDARD
  9
$DIMCLRD
 70
     0
  9
$DIMCLRE
 70
     0
  9
$DIMCLRT
 70
     0
  9
$DIMTFAC
 40
1.0
  9
$DIMGAP
 40
0.09
  9
$DIMJUST
 70
     0
  9
$DIMSD1
 70
     0
  9
$DIMSD2
 70
     0
  9
$DIMTOLJ
 70
     1
  9
$DIMTZIN
 70
     0
  9
$DIMALTZ
 70
     0
  9
$DIMALTTZ
 70
     0
  9
$DIMFIT
 70
     5
  9
$DIMUPT
 70
     0
  9
$DIMUNIT
 70
     2
  9
$DIMDEC
 70
     4
  9
$DIMTDEC
 70
     4
  9
$DIMALTU
 70
     2
  9
$DIMALTTD
 70
     2
  9
$DIMTXSTY
  7
STANDARD
  9
$DIMAUNIT
 70
     0
  9
$LUNITS
 70
     2
  9
$LUPREC
 70
     3
  9
$SKETCHINC
 40
0.1
  9
$FILLETRAD
 40
0.5
  9
$AUNITS
 70
     0
  9
$AUPREC
 70
     0
  9
$MENU
  1
.
  9
$ELEVATION
 40
0.0
  9
$PELEVATION
 40
0.0
  9
$THICKNESS
 40
0.0
  9
$LIMCHECK
 70
     0
  9
$CHAMFERA
 40
0.5
  9
$CHAMFERB
 40
0.5
  9
$CHAMFERC
 40
1.0
  9
$CHAMFERD
 40
0.0
  9
$SKPOLY
 70
     0
  9
$TDCREATE
 40
2458047.691140185
  9
$TDUPDATE
 40
2458047.691140197
  9
$TDINDWG
 40
0.0000000116
  9
$TDUSRTIMER
 40
0.0000000116
  9
$USRTIMER
 70
     1
  9
$ANGBASE
 50
0.0
  9
$ANGDIR
 70
     0
  9
$PDMODE
 70
     0
  9
$PDSIZE
 40
0.0
  9
$PLINEWID
 40
0.0
  9
$COORDS
 70
     1
  9
$SPLFRAME
 70
     0
  9
$SPLINETYPE
 70
     6
  9
$SPLINESEGS
 70
     8
  9
$ATTDIA
 70
     0
  9
$ATTREQ
 70
     1
  9
$HANDLING
 70
     1
  9
$HANDSEED
  5
1B4
  9
$SURFTAB1
 70
     6
  9
$SURFTAB2
 70
     6
  9
$SURFTYPE
 70
     6
  9
$SURFU
 70
     6
  9
$SURFV
 70
     6
  9
$UCSNAME
  2

  9
$UCSORG
 10
0.0
 20
0.0
 30
0.0
  9
$UCSXDIR
 10
1.0
 20
0.0
 30
0.0
  9
$UCSYDIR
 10
0.0
 20
1.0
 30
0.0
  9
$PUCSNAME
  2

  9
$PUCSORG
 10
0.0
 20
0.0
 30
0.0
  9
$PUCSXDIR
 10
1.0
 20
0.0
 30
0.0
  9
$PUCSYDIR
 10
0.0
 20
1.0
 30
0.0
  9
$USERI1
 70
     0
  9
$USERI2
 70
     0
  9
$USERI3
 70
     0
  9
$USERI4
 70
     0
  9
$USERI5
 70
     0
  9
$USERR1
 40
0.0
  9
$USERR2
 40
0.0
  9
$USERR3
 40
0.0
  9
$USERR4
 40
0.0
  9
$USERR5
 40
0.0
  9
$WORLDVIEW
 70
     1
  9
$SHADEDGE
 70
     3
  9
$SHADEDIF
 70
    70
  9
$TILEMODE
 70
     1
  9
$MAXACTVP
 70
    64
  9
$PINSBASE
 10
0.0
 20
0.0
 30
0.0
  9
$PLIMCHECK
 70
     0
  9
$PEXTMIN
 10
1.000000000000000E+20
 20
1.000000000000000E+20
 30
1.000000000000000E+20
  9
$PEXTMAX
 10
-1.000000000000000E+20
 20
-1.000000000000000E+20
 30
-1.000000000000000E+20
  9
$PLIMMIN
 10
0.0
 20
0.0
  9
$PLIMMAX
 10
12.0
 20
9.0
  9
$UNITMODE
 70
     0
  9
$VISRETAIN
 70
     1
  9
$PLINEGEN
 70
     0
  9
$PSLTSCALE
 70
     1
  9
$TREEDEPTH
 70
  3020
  9
$PICKSTYLE
 70
     1
  9
$CMLSTYLE
  2
STANDARD
  9
$CMLJUST
 70
     0
  9
$CMLSCALE
 40
1.0
  9
$PROXYGRAPHICS
 70
     1
  9
$MEASUREMENT
 70
     0
  0
ENDSEC
  0
SECTION
  2
CLASSES
  0
CLASS
  1
ACDBDICTIONARYWDFLT
  2
AcDbDictionaryWithDefault
  3
ObjectDBX Classes
 90
        0
280
     0
281
     0
  0
CLASS
  1
VISUALSTYLE
  2
AcDbVisualStyle
  3
ObjectDBX Classes
 90
     4095
280
     0
281
     0
  0
CLASS
  1
XRECORD
  2
AcDbXrecord
  3
AutoCAD 2000
 90
        0
280
     0
281
     0
  0
CLASS
  1
LWPOLYLINE
  2
AcDbPolyline
  3
AutoCAD 2000
 90
        0
280
     0
281
     1
  0
CLASS
  1
HATCH
  2
AcDbHatch
  3
AutoCAD 2000
 90
        0
280
     0
281
     1
  0
CLASS
  1
ACDBPLACEHOLDER
  2
AcDbPlaceHolder
  3
ObjectDBX Classes
 90
        0
280
     0
281
     0
  0
CLASS
  1
LAYOUT
  2
AcDbLayout
  3
ObjectDBX Classes
 90
        0
280
     0
281
     0
  0
ENDSEC
  0
SECTION
  2
TABLES
  0
TABLE
  2
VPORT
  5
8
330
0
100
AcDbSymbolTable
 70
     1
  0
VPORT
  5
29
330
8
100
AcDbSymbolTableRecord
100
AcDbViewportTableRecord
  2
*ACTIVE
 70
     0
 10
0.0
 20
0.0
 11
1.0
 21
1.0
 12
147.1941656025549
 22
-2.465706370044636
 13
0.0
 23
0.0
 14
0.5
 24
0.5
 15
0.5
 25
0.5
 16
0.0
 26
0.0
 36
1.0
 17
0.0
 27
0.0
 37
0.0
 40
126.8982
 41
0.9631862536455768
 42
50.0
 43
0.0
 44
0.0
 50
0.0
 51
0.0
 71
     0
 72
   100
 73
     1
 74
     3
 75
     0
 76
     0
 77
     0
 78
     0
  0
ENDTAB
  0
TABLE
  2
LTYPE
  5
5
330
0
100
AcDbSymbolTable
 70
     1
  0
LTYPE
  5
14
330
5
100
AcDbSymbolTableRecord
100
AcDbLinetypeTableRecord
  2
BYBLOCK
 70
     0
  3

 72
    65
 73
     0
 40
0.0
  0
LTYPE
  5
15
330
5
100
AcDbSymbolTableRecord
100
AcDbLinetypeTableRecord
  2
BYLAYER
 70
     0
  3

 72
    65
 73
     0
 40
0.0
  0
LTYPE
  5
16
330
5
100
AcDbSymbolTableRecord
100
AcDbLinetypeTableRecord
  2
CONTINUOUS
 70
     0
  3
Solid line
 72
    65
 73
     0
 40
0.0
  0
ENDTAB
  0
TABLE
  2
LAYER
  5
2
330
0
100
AcDbSymbolTable
 70
     3
  0
LAYER
  5
10
330
2
100
AcDbSymbolTableRecord
100
AcDbLayerTableRecord
  2
0
 70
     0
 62
     7
  6
CONTINUOUS
  0
LAYER
  5
3B
330
2
100
AcDbSymbolTableRecord
100
AcDbLayerTableRecord
  2
MAKE2D_VISIBLE_LINES
 70
     0
 62
     7
  6
CONTINUOUS
  0
LAYER
  5
50
330
2
100
AcDbSymbolTableRecord
100
AcDbLayerTableRecord
  2
MAKE2D_VISIBLE_LINES_-_TAN
 70
     0
 62
     7
  6
CONTINUOUS
  0
ENDTAB
  0
TABLE
  2
STYLE
  5
3
330
0
100
AcDbSymbolTable
 70
     1
  0
STYLE
  5
11
330
3
100
AcDbSymbolTableRecord
100
AcDbTextStyleTableRecord
  2
STANDARD
 70
     0
 40
0.0
 41
1.0
 50
0.0
 71
     0
 42
0.2
  3
txt
  4

  0
ENDTAB
  0
TABLE
  2
VIEW
  5
6
330
0
100
AcDbSymbolTable
 70
     0
  0
ENDTAB
  0
TABLE
  2
UCS
  5
7
330
0
100
AcDbSymbolTable
 70
     0
  0
ENDTAB
  0
TABLE
  2
APPID
  5
9
330
0
100
AcDbSymbolTable
 70
     1
  0
APPID
  5
12
330
9
100
AcDbSymbolTableRecord
100
AcDbRegAppTableRecord
  2
ACAD
 70
     0
  0
ENDTAB
  0
TABLE
  2
DIMSTYLE
  5
A
330
0
100
AcDbSymbolTable
 70
     1
  0
DIMSTYLE
105
27
330
A
100
AcDbSymbolTableRecord
100
AcDbDimStyleTableRecord
  2
STANDARD
 70
     0
  3

  4

  5

  6

  7

 40
1.0
 41
0.18
 42
0.0625
 43
0.38
 44
0.18
 45
0.0
 46
0.0
 47
0.0
 48
0.0
140
0.18
141
0.09
142
0.0
143
25.4
144
1.0
145
0.0
146
1.0
147
0.09
 71
     0
 72
     0
 73
     1
 74
     1
 75
     0
 76
     0
 77
     0
 78
     0
170
     0
171
     2
172
     0
173
     0
174
     0
175
     0
176
     0
177
     0
178
     0
270
     2
271
     4
272
     4
273
     2
274
     2
340
11
275
     0
280
     0
281
     0
282
     0
283
     1
284
     0
285
     0
286
     0
287
     3
288
     0
  0
ENDTAB
  0
TABLE
  2
BLOCK_RECORD
  5
1
330
0
100
AcDbSymbolTable
 70
     1
  0
BLOCK_RECORD
  5
1F
330
1
100
AcDbSymbolTableRecord
100
AcDbBlockTableRecord
  2
*MODEL_SPACE
  0
BLOCK_RECORD
  5
1B
330
1
100
AcDbSymbolTableRecord
100
AcDbBlockTableRecord
  2
*PAPER_SPACE
  0
ENDTAB
  0
ENDSEC
  0
SECTION
  2
BLOCKS
  0
BLOCK
  5
20
330
1F
100
AcDbEntity
  8
0
100
AcDbBlockBegin
  2
*MODEL_SPACE
 70
     0
 10
0.0
 20
0.0
 30
0.0
  3
*MODEL_SPACE
  1

  0
ENDBLK
  5
21
330
1F
100
AcDbEntity
  8
0
100
AcDbBlockEnd
  0
BLOCK
  5
1C
330
1B
100
AcDbEntity
 67
     1
  8
0
100
AcDbBlockBegin
  2
*PAPER_SPACE
 70
     0
 10
0.0
 20
0.0
 30
0.0
  3
*PAPER_SPACE
  1

  0
ENDBLK
  5
1D
330
1B
100
AcDbEntity
 67
     1
  8
0
100
AcDbBlockEnd
  0
ENDSEC
  0
SECTION
  2
ENTITIES
  0
SPLINE
  5
3C
330
1F
100
AcDbEntity
  8
MAKE2D_VISIBLE_LINES
100
AcDbSpline
210
0.0
220
0.0
230
1.0
 70
    24
 71
     2
 72
     6
 73
     3
 74
     0
 42
0.0000000001
 43
0.0000000001
 40
0.0
 40
0.0
 40
0.0
 40
3.867445468412328
 40
3.867445468412328
 40
3.867445468412328
 10
207.059166510578
 20
19.88929362995536
 30
0.0
 10
207.059166510578
 20
17.9555708957492
 30
0.0
 10
207.059166510578
 20
16.02184816154303
 30
0.0
  0
SPLINE
  5
3D
330
1F
100
AcDbEntity
  8
MAKE2D_VISIBLE_LINES
100
AcDbSpline
210
0.0
220
0.0
230
1.0
 70
    24
 71
     2
 72
     6
 73
     3
 74
     0
 42
0.0000000001
 43
0.0000000001
 40
0.0
 40
0.0
 40
0.0
 40
0.1873417712316473
 40
0.1873417712316473
 40
0.1873417712316473
 10
207.059166510578
 20
30.17929362995535
 30
0.0
 10
206.9929311921593
 20
30.24552894837405
 30
0.0
 10
206.9266958737406
 20
30.31176426679275
 30
0.0
  0
SPLINE
  5
3E
330
1F
100
AcDbEntity
  8
MAKE2D_VISIBLE_LINES
100
AcDbSpline
210
0.0
220
0.0
230
1.0
 70
    24
 71
     2
 72
     6
 73
     3
 74
     0
 42
0.0000000001
 43
0.0000000001
 40
0.0
 40
0.0
 40
0.0
 40
0.1873417712316323
 40
0.1873417712316323
 40
0.1873417712316323
 10
207.059166510578
 20
19.88929362995536
 30
0.0
 10
206.9929311921593
 20
19.95552894837405
 30
0.0
 10
206.9266958737406
 20
20.02176426679274
 30
0.0
  0
SPLINE
  5
3F
330
1F
100
AcDbEntity
  8
MAKE2D_VISIBLE_LINES
100
AcDbSpline
210
0.0
220
0.0
230
1.0
 70
     8
 71
     3
 72
    15
 73
    11
 74
     0
 42
0.0000000001
 43
0.0000000001
 40
0.0
 40
0.0
 40
0.0
 40
0.0
 40
3.880978911362909
 40
6.481292702040079
 40
9.074488472350088
 40
11.88387134951443
 40
15.79070409562812
 40
16.86792667871536
 40
21.67423114751759
 40
35.28941750396888
 40
35.28941750396888
 40
35.28941750396888
 40
35.28941750396888
 10
205.4438440766301
 20
-53.17073617653655
 30
0.0
 10
205.4355418624647
 20
-54.4612018281215
 30
0.0
 10
205.4891788413942
 20
-56.63880212054045
 30
0.0
 10
204.6379723473863
 20
-59.58396440277038
 30
0.0
 10
203.0232419404234
 20
-61.76300053941612
 30
0.0
 10
200.2837234633965
 20
-63.37720468188191
 30
0.0
 10
197.6527699686818
 20
-63.6282993533282
 30
0.0
 10
194.3994843350207
 20
-63.63680914084628
 30
0.0
 10
187.8920756359041
 20
-63.65483074012116
 30
0.0
 10
181.757673411238
 20
-63.64075344850574
 30
0.0
 10
177.2173055365295
 20
-63.64329647330601
 30
0.0
  0
SPLINE
  5
40
330
1F
100
AcDbEntity
  8
MAKE2D_VISIBLE_LINES
100
AcDbSpline
210
0.0
220
0.0
230
1.0
 70
    12
 71
     2
 72
     6
 73
     3
 74
     0
 42
0.0000000001
 43
0.0000000001
 40
0.0
 40
0.0
 40
0.0
 40
0.0511494652903709
 40
0.0511494652903709
 40
0.0511494652903709
 10
148.9365739824268
 20
47.65137687769537
 30
0.0
 41
1.0
 10
148.918469801459
 20
47.63331294729988
 30
0.0
 41
0.999999999996469
 10
148.9003657164988
 20
47.61524892068209
 30
0.0
 41
1.0
  0
SPLINE
  5
41
330
1F
100
AcDbEntity
  8
MAKE2D_VISIBLE_LINES
100
AcDbSpline
210
0.0
220
0.0
230
1.0
 70
    24
 71
     2
 72
     6
 73
     3
 74
     0
 42
0.0000000001
 43
0.0000000001
 40
0.0
 40
0.0
 40
0.0
 40
0.4299999999999926
 40
0.4299999999999926
 40
0.4299999999999926
 10
167.2091665105779
 20
59.58929362995535
 30
0.0
 10
167.2091665105779
 20
59.37429362995535
 30
0.0
 10
167.2091665105779
 20
59.15929362995536
 30
0.0
  0
SPLINE
  5
42
330
1F
100
AcDbEntity
  8
MAKE2D_VISIBLE_LINES
100
AcDbSpline
210
0.0
220
0.0
230
1.0
 70
    12
 71
     2
 72
    12
 73
     9
 74
     0
 42
0.0000000001
 43
0.0000000001
 40
0.0
 40
0.0
 40
0.0
 40
4.29606405731279
 40
4.29606405731279
 40
8.592128114625579
 40
8.592128114625579
 40
12.88819217193837
 40
12.88819217193837
 40
17.18425622925116
 40
17.18425622925116
 40
17.18425622925116
 10
159.924166498619
 20
51.80954918607489
 30
0.0
 41
1.0
 10
159.9239107394748
 20
54.54448528243471
 30
0.0
 41
0.7071150395952804
 10
157.188974637887
 20
54.54429340714137
 30
0.0
 41
1.0
 10
154.4540385362991
 20
54.54410153184803
 30
0.0
 41
0.7071150395952804
 10
154.4541665277415
 20
51.80916542652439
 30
0.0
 41
1.0
 10
154.4542945191839
 20
49.07422932120074
 30
0.0
 41
0.7071150395952804
 10
157.1892306267512
 20
49.07429342879217
 30
0.0
 41
1.0
 10
159.9241667343183
 20
49.0743575363836
 30
0.0
 41
0.7071150395952804
 10
159.924166510578
 20
51.80929364470214
 30
0.0
 41
1.0
  0
SPLINE
  5
43
330
1F
100
AcDbEntity
  8
MAKE2D_VISIBLE_LINES
100
AcDbSpline
210
0.0
220
0.0
230
1.0
 70
    24
 71
     2
 72
     6
 73
     3
 74
     0
 42
0.0000000001
 43
0.0000000001
 40
0.0
 40
0.0
 40
0.0
 40
0.4801571774164515
 40
0.4801571774164515
 40
0.4801571774164515
 10
206.4790093331616
 20
42.04929362995536
 30
0.0
 10
206.7190879218698
 20
42.04929362995536
 30
0.0
 10
206.959166510578
 20
42.04929362995536
 30
0.0
  0
SPLINE
  5
44
330
1F
100
AcDbEntity
  8
MAKE2D_VISIBLE_LINES
100
AcDbSpline
210
0.0
220
0.0
230
1.0
 70
    24
 71
     2
 72
     6
 73
     3
 74
     0
 42
0.0000000001
 43
0.0000000001
 40
0.0
 40
0.0
 40
0.0
 40
0.2121320343559623
 40
0.2121320343559623
 40
0.2121320343559623
 10
157.7091665105779
 20
59.58929362995535
 30
0.0
 10
157.7841665105779
 20
59.66429362995535
 30
0.0
 10
157.8591665105779
 20
59.73929362995536
 30
0.0
  0
SPLINE
  5
45
330
1F
100
AcDbEntity
  8
MAKE2D_VISIBLE_LINES
100
AcDbSpline
210
0.0
220
0.0
230
1.0
 70
    24
 71
     2
 72
     6
 73
     3
 74
     0
 42
0.0000000001
 43
0.0000000001
 40
0.0
 40
0.0
 40
0.0
 40
0.4505141192325794
 40
0.4505141192325794
 40
0.4505141192325794
 10
157.7091665105779
 20
59.13877951072277
 30
0.0
 10
157.7091665105779
 20
59.36403657033906
 30
0.0
 10
157.7091665105779
 20
59.58929362995535
 30
0.0
  0
SPLINE
  5
46
330
1F
100
AcDbEntity
  8
MAKE2D_VISIBLE_LINES
100
AcDbSpline
210
0.0
220
0.0
230
1.0
 70
    24
 71
     2
 72
     6
 73
     3
 74
     0
 42
0.0000000001
 43
0.0000000001
 40
0.0
 40
0.0
 40
0.0
 40
0.2121320343559723
 40
0.2121320343559723
 40
0.2121320343559723
 10
167.0591665105779
 20
59.73929362995536
 30
0.0
 10
167.1341665105779
 20
59.66429362995535
 30
0.0
 10
167.2091665105779
 20
59.58929362995535
 30
0.0
  0
SPLINE
  5
47
330
1F
100
AcDbEntity
  8
MAKE2D_VISIBLE_LINES
100
AcDbSpline
210
0.0
220
0.0
230
1.0
 70
    24
 71
     2
 72
     6
 73
     3
 74
     0
 42
0.0000000001
 43
0.0000000001
 40
0.0
 40
0.0
 40
0.0
 40
3.867445468412328
 40
3.867445468412328
 40
3.867445468412328
 10
207.059166510578
 20
30.17929362995535
 30
0.0
 10
207.059166510578
 20
28.24557089574919
 30
0.0
 10
207.059166510578
 20
26.31184816154303
 30
0.0
  0
SPLINE
  5
48
330
1F
100
AcDbEntity
  8
MAKE2D_VISIBLE_LINES
100
AcDbSpline
210
0.0
220
0.0
230
1.0
 70
    24
 71
     2
 72
     6
 73
     3
 74
     0
 42
0.0000000001
 43
0.0000000001
 40
0.0
 40
0.0
 40
0.0
 40
4.164941273674813
 40
4.164941273674813
 40
4.164941273674813
 10
206.909166510578
 20
26.12929362995536
 30
0.0
 10
206.909166510578
 20
28.21176426679276
 30
0.0
 10
206.909166510578
 20
30.29423490363017
 30
0.0
  0
SPLINE
  5
49
330
1F
100
AcDbEntity
  8
MAKE2D_VISIBLE_LINES
100
AcDbSpline
210
0.0
220
0.0
230
1.0
 70
    24
 71
     2
 72
     6
 73
     3
 74
     0
 42
0.0000000001
 43
0.0000000001
 40
0.0
 40
0.0
 40
0.0
 40
0.4300099519132132
 40
0.4300099519132132
 40
0.4300099519132132
 10
206.909166510578
 20
26.12929362995537
 30
0.0
 10
206.6941615346214
 20
26.12929362995536
 30
0.0
 10
206.4791565586648
 20
26.12929362995536
 30
0.0
  0
SPLINE
  5
4A
330
1F
100
AcDbEntity
  8
MAKE2D_VISIBLE_LINES
100
AcDbSpline
210
0.0
220
0.0
230
1.0
 70
    24
 71
     2
 72
     6
 73
     3
 74
     0
 42
0.0000000001
 43
0.0000000001
 40
0.0
 40
0.0
 40
0.0
 40
4.164941273674813
 40
4.164941273674813
 40
4.164941273674813
 10
206.909166510578
 20
15.83929362995535
 30
0.0
 10
206.909166510578
 20
17.92176426679276
 30
0.0
 10
206.909166510578
 20
20.00423490363016
 30
0.0
  0
SPLINE
  5
4B
330
1F
100
AcDbEntity
  8
MAKE2D_VISIBLE_LINES
100
AcDbSpline
210
0.0
220
0.0
230
1.0
 70
    24
 71
     2
 72
     6
 73
     3
 74
     0
 42
0.0000000001
 43
0.0000000001
 40
0.0
 40
0.0
 40
0.0
 40
0.4300098682730891
 40
0.4300098682730891
 40
0.4300098682730891
 10
206.909166510578
 20
15.83929362995535
 30
0.0
 10
206.6941615764415
 20
15.83929362995535
 30
0.0
 10
206.4791566423049
 20
15.83929362995535
 30
0.0
  0
SPLINE
  5
4C
330
1F
100
AcDbEntity
  8
MAKE2D_VISIBLE_LINES
100
AcDbSpline
210
0.0
220
0.0
230
1.0
 70
    28
 71
     2
 72
     6
 73
     3
 74
     0
 42
0.0000000001
 43
0.0000000001
 40
0.7363107781851077
 40
0.7363107781851077
 40
0.7363107781851077
 40
0.9817477042468103
 40
0.9817477042468103
 40
0.9817477042468103
 10
206.959166510578
 20
36.59319385505201
 30
0.0
 41
0.8901650429449554
 10
206.959166510578
 20
36.54931154321605
 30
0.0
 41
0.9267766952966369
 10
206.959166510578
 20
36.54931154321604
 30
0.0
 41
1.0
  0
SPLINE
  5
4D
330
1F
100
AcDbEntity
  8
MAKE2D_VISIBLE_LINES
100
AcDbSpline
210
0.0
220
0.0
230
1.0
 70
    28
 71
     2
 72
     6
 73
     3
 74
     0
 42
0.0000000001
 43
0.0000000001
 40
0.9817477042468103
 40
0.9817477042468103
 40
0.9817477042468103
 40
1.963495408493621
 40
1.963495408493621
 40
1.963495408493621
 10
206.959166510578
 20
36.54931154321604
 30
0.0
 41
1.0
 10
206.959166510578
 20
36.54931154321604
 30
0.0
 41
0.7071067811865476
 10
206.959166510578
 20
37.17431154321604
 30
0.0
 41
1.0
  0
SPLINE
  5
4E
330
1F
100
AcDbEntity
  8
MAKE2D_VISIBLE_LINES
100
AcDbSpline
210
0.0
220
0.0
230
1.0
 70
    24
 71
     2
 72
     6
 73
     3
 74
     0
 42
0.0000000001
 43
0.0000000001
 40
0.0
 40
0.0
 40
0.0
 40
0.5811176881640137
 40
0.5811176881640137
 40
0.5811176881640137
 10
206.959166510578
 20
41.42429362995536
 30
0.0
 10
206.959166510578
 20
41.71485247403736
 30
0.0
 10
206.959166510578
 20
42.00541131811937
 30
0.0
  0
SPLINE
  5
4F
330
1F
100
AcDbEntity
  8
MAKE2D_VISIBLE_LINES
100
AcDbSpline
210
0.0
220
0.0
230
1.0
 70
    24
 71
     2
 72
     6
 73
     3
 74
     0
 42
0.0000000001
 43
0.0000000001
 40
0.0
 40
0.0
 40
0.0
 40
4.249982086739323
 40
4.249982086739323
 40
4.249982086739323
 10
206.959166510578
 20
41.42429362995536
 30
0.0
 10
206.959166510578
 20
39.2993025865857
 30
0.0
 10
206.959166510578
 20
37.17431154321604
 30
0.0
  0
SPLINE
  5
51
330
1F
100
AcDbEntity
  8
MAKE2D_VISIBLE_LINES_-_TAN
100
AcDbSpline
210
0.0
220
0.0
230
1.0
 70
    24
 71
     2
 72
     6
 73
     3
 74
     0
 42
0.0000000001
 43
0.0000000001
 40
0.0
 40
0.0
 40
0.0
 40
0.4799999999999898
 40
0.4799999999999898
 40
0.4799999999999898
 10
206.959166510578
 20
37.17431154321604
 30
0.0
 10
206.719166510578
 20
37.17431154321604
 30
0.0
 10
206.479166510578
 20
37.17431154321604
 30
0.0
  0
SPLINE
  5
52
330
1F
100
AcDbEntity
  8
MAKE2D_VISIBLE_LINES_-_TAN
100
AcDbSpline
210
0.0
220
0.0
230
1.0
 70
    24
 71
     2
 72
     6
 73
     3
 74
     0
 42
0.0000000001
 43
0.0000000001
 40
0.0
 40
0.0
 40
0.0
 40
0.1500000000000057
 40
0.1500000000000057
 40
0.1500000000000057
 10
166.1091665105779
 20
59.58929362995535
 30
0.0
 10
166.1091665105779
 20
59.66429362995535
 30
0.0
 10
166.1091665105779
 20
59.73929362995536
 30
0.0
  0
SPLINE
  5
53
330
1F
100
AcDbEntity
  8
MAKE2D_VISIBLE_LINES_-_TAN
100
AcDbSpline
210
0.0
220
0.0
230
1.0
 70
    24
 71
     2
 72
     6
 73
     3
 74
     0
 42
0.0000000001
 43
0.0000000001
 40
0.0
 40
0.0
 40
0.0
 40
0.1500000000000057
 40
0.1500000000000057
 40
0.1500000000000057
 10
158.8091665105779
 20
59.73929362995536
 30
0.0
 10
158.8091665105779
 20
59.66429362995535
 30
0.0
 10
158.8091665105779
 20
59.58929362995535
 30
0.0
  0
SPLINE
  5
54
330
1F
100
AcDbEntity
  8
MAKE2D_VISIBLE_LINES
100
AcDbSpline
210
0.0
220
0.0
230
1.0
 70
    24
 71
     2
 72
     6
 73
     3
 74
     0
 42
0.0000000001
 43
0.0000000001
 40
0.0
 40
0.0
 40
0.0
 40
0.9500000000000028
 40
0.9500000000000028
 40
0.9500000000000028
 10
157.8591665105779
 20
59.73929362995536
 30
0.0
 10
158.3341665105779
 20
59.73929362995536
 30
0.0
 10
158.8091665105779
 20
59.73929362995536
 30
0.0
  0
SPLINE
  5
55
330
1F
100
AcDbEntity
  8
MAKE2D_VISIBLE_LINES
100
AcDbSpline
210
0.0
220
0.0
230
1.0
 70
    24
 71
     2
 72
     6
 73
     3
 74
     0
 42
0.0000000001
 43
0.0000000001
 40
0.0
 40
0.0
 40
0.0
 40
0.9500000000000028
 40
0.9500000000000028
 40
0.9500000000000028
 10
166.1091665105779
 20
59.73929362995536
 30
0.0
 10
166.5841665105779
 20
59.73929362995536
 30
0.0
 10
167.0591665105779
 20
59.73929362995536
 30
0.0
  0
SPLINE
  5
56
330
1F
100
AcDbEntity
  8
MAKE2D_VISIBLE_LINES
100
AcDbSpline
210
0.0
220
0.0
230
1.0
 70
    24
 71
     2
 72
     6
 73
     3
 74
     0
 42
0.0000000001
 43
0.0000000001
 40
0.0
 40
0.0
 40
0.0
 40
7.299999999999997
 40
7.299999999999997
 40
7.299999999999997
 10
158.8091665105779
 20
59.73929362995536
 30
0.0
 10
162.4591665105779
 20
59.73929362995536
 30
0.0
 10
166.1091665105779
 20
59.73929362995536
 30
0.0
  0
SPLINE
  5
57
330
1F
100
AcDbEntity
  8
MAKE2D_VISIBLE_LINES
100
AcDbSpline
210
0.0
220
0.0
230
1.0
 70
    24
 71
     2
 72
     6
 73
     3
 74
     0
 42
0.0000000001
 43
0.0000000001
 40
0.0
 40
0.0
 40
0.0
 40
7.299999999999997
 40
7.299999999999997
 40
7.299999999999997
 10
158.8091665105779
 20
59.58929362995535
 30
0.0
 10
162.4591665105779
 20
59.58929362995535
 30
0.0
 10
166.1091665105779
 20
59.58929362995535
 30
0.0
  0
SPLINE
  5
58
330
1F
100
AcDbEntity
  8
MAKE2D_VISIBLE_LINES_-_TAN
100
AcDbSpline
210
0.0
220
0.0
230
1.0
 70
    24
 71
     2
 72
     6
 73
     3
 74
     0
 42
0.0000000001
 43
0.0000000001
 40
0.0
 40
0.0
 40
0.0
 40
0.4806761559543133
 40
0.4806761559543133
 40
0.4806761559543133
 10
206.4784903546237
 20
41.42429362995536
 30
0.0
 10
206.7188284326009
 20
41.42429362995536
 30
0.0
 10
206.959166510578
 20
41.42429362995536
 30
0.0
  0
SPLINE
  5
59
330
1F
100
AcDbEntity
  8
MAKE2D_VISIBLE_LINES_-_TAN
100
AcDbSpline
210
0.0
220
0.0
230
1.0
 70
    24
 71
     2
 72
     6
 73
     3
 74
     0
 42
0.0000000001
 43
0.0000000001
 40
0.0
 40
0.0
 40
0.0
 40
0.6319925426330293
 40
0.6319925426330293
 40
0.6319925426330293
 10
147.9091744116975
 20
37.74461925543406
 30
0.0
 10
148.2251706829931
 20
37.74462289514751
 30
0.0
 10
148.5411669542886
 20
37.74462653486096
 30
0.0
  0
SPLINE
  5
5A
330
1F
100
AcDbEntity
  8
MAKE2D_VISIBLE_LINES_-_TAN
100
AcDbSpline
210
0.0
220
0.0
230
1.0
 70
    24
 71
     2
 72
     6
 73
     3
 74
     0
 42
0.0000000001
 43
0.0000000001
 40
0.0
 40
0.0
 40
0.0
 40
0.631994317552014
 40
0.631994317552014
 40
0.631994317552014
 10
148.5411687291314
 20
-43.25603927492165
 30
0.0
 10
148.2251715703763
 20
-43.2560356352225
 30
0.0
 10
147.9091744116213
 20
-43.25603199552336
 30
0.0
  0
SPLINE
  5
5B
330
1F
100
AcDbEntity
  8
MAKE2D_VISIBLE_LINES
100
AcDbSpline
210
0.0
220
0.0
230
1.0
 70
    12
 71
     2
 72
     6
 73
     3
 74
     0
 42
0.0000000001
 43
0.0000000001
 40
0.0
 40
0.0
 40
0.0
 40
9.814675238731308
 40
9.814675238731308
 40
9.814675238731308
 10
206.4760618642492
 20
-53.07070634698954
 30
0.0
 41
1.0
 10
206.4800336821243
 20
-48.16336993576822
 30
0.0
 41
0.999999877985635
 10
206.4791571226483
 20
-43.25603199551188
 30
0.0
 41
1.0
  0
SPLINE
  5
5C
330
1F
100
AcDbEntity
  8
MAKE2D_VISIBLE_LINES
100
AcDbSpline
210
0.0
220
0.0
230
1.0
 70
    12
 71
     2
 72
     6
 73
     3
 74
     0
 42
0.0000000001
 43
0.0000000001
 40
0.0
 40
0.0
 40
0.0
 40
9.814675278843056
 40
9.814675278843056
 40
9.814675278843056
 10
147.9091743259476
 20
-43.25603199552237
 30
0.0
 41
1.0
 10
147.9082646144928
 20
-48.16336996302439
 30
0.0
 41
0.9999998739436863
 10
147.9122829318214
 20
-53.07070636966983
 30
0.0
 41
1.0
  0
SPLINE
  5
5D
330
1F
100
AcDbEntity
  8
MAKE2D_VISIBLE_LINES
100
AcDbSpline
210
0.0
220
0.0
230
1.0
 70
    12
 71
     2
 72
     6
 73
     3
 74
     0
 42
0.0000000001
 43
0.0000000001
 40
0.0
 40
0.0
 40
0.0
 40
9.814675278842778
 40
9.814675278842778
 40
9.814675278842778
 10
147.9091743259748
 20
37.74461925543308
 30
0.0
 41
1.0
 10
147.9082646145059
 20
42.65195722293497
 30
0.0
 41
0.9999998739436863
 10
147.9122829318221
 20
47.55929362958027
 30
0.0
 41
1.0
  0
SPLINE
  5
5E
330
1F
100
AcDbEntity
  8
MAKE2D_VISIBLE_LINES_-_TAN
100
AcDbSpline
210
0.0
220
0.0
230
1.0
 70
    24
 71
     2
 72
     6
 73
     3
 74
     0
 42
0.0000000001
 43
0.0000000001
 40
0.0
 40
0.0
 40
0.0
 40
0.6319931527658907
 40
0.6319931527658907
 40
0.6319931527658907
 10
206.4791571226489
 20
-43.25603199551188
 30
0.0
 10
206.1631605463034
 20
-43.25602712882591
 30
0.0
 10
205.8471639699579
 20
-43.25602226213992
 30
0.0
  0
SPLINE
  5
5F
330
1F
100
AcDbEntity
  8
MAKE2D_VISIBLE_LINES_-_TAN
100
AcDbSpline
210
0.0
220
0.0
230
1.0
 70
    24
 71
     2
 72
     6
 73
     3
 74
     0
 42
0.0000000001
 43
0.0000000001
 40
0.0
 40
0.0
 40
0.0
 40
0.6319943197908948
 40
0.6319943197908948
 40
0.6319943197908948
 10
205.8471588887176
 20
37.74460952202234
 30
0.0
 10
206.1631560485755
 20
37.74461438869233
 30
0.0
 10
206.4791532084335
 20
37.74461925536231
 30
0.0
  0
SPLINE
  5
60
330
1F
100
AcDbEntity
  8
MAKE2D_VISIBLE_LINES
100
AcDbSpline
210
0.0
220
0.0
230
1.0
 70
    24
 71
     2
 72
     6
 73
     3
 74
     0
 42
0.0000000001
 43
0.0000000001
 40
0.0
 40
0.0
 40
0.0
 40
81.00065125095546
 40
81.00065125095546
 40
81.00065125095546
 10
147.9091743259476
 20
-43.25603199552237
 30
0.0
 10
147.9091743259616
 20
-2.755706370044646
 30
0.0
 10
147.9091743259757
 20
37.74461925543308
 30
0.0
  0
SPLINE
  5
61
330
1F
100
AcDbEntity
  8
MAKE2D_VISIBLE_LINES_-_TAN
100
AcDbSpline
210
0.0
220
0.0
230
1.0
 70
    24
 71
     2
 72
     6
 73
     3
 74
     0
 42
0.0000000001
 43
0.0000000001
 40
0.0
 40
0.0
 40
0.0
 40
0.439108205577611
 40
0.439108205577611
 40
0.439108205577611
 10
158.8091665105779
 20
59.15018542437774
 30
0.0
 10
158.8091665105779
 20
59.36973952716654
 30
0.0
 10
158.8091665105779
 20
59.58929362995535
 30
0.0
  0
SPLINE
  5
62
330
1F
100
AcDbEntity
  8
MAKE2D_VISIBLE_LINES
100
AcDbSpline
210
0.0
220
0.0
230
1.0
 70
    24
 71
     2
 72
     6
 73
     3
 74
     0
 42
0.0000000001
 43
0.0000000001
 40
0.0
 40
0.0
 40
0.0
 40
1.099999999999994
 40
1.099999999999994
 40
1.099999999999994
 10
158.8091665105779
 20
59.58929362995535
 30
0.0
 10
158.2591665105779
 20
59.58929362995535
 30
0.0
 10
157.7091665105779
 20
59.58929362995535
 30
0.0
  0
SPLINE
  5
63
330
1F
100
AcDbEntity
  8
MAKE2D_VISIBLE_LINES_-_TAN
100
AcDbSpline
210
0.0
220
0.0
230
1.0
 70
    24
 71
     2
 72
     6
 73
     3
 74
     0
 42
0.0000000001
 43
0.0000000001
 40
0.0
 40
0.0
 40
0.0
 40
0.4300000000000068
 40
0.4300000000000068
 40
0.4300000000000068
 10
166.1091665105779
 20
59.58929362995535
 30
0.0
 10
166.1091665105779
 20
59.37429362995535
 30
0.0
 10
166.1091665105779
 20
59.15929362995534
 30
0.0
  0
SPLINE
  5
64
330
1F
100
AcDbEntity
  8
MAKE2D_VISIBLE_LINES
100
AcDbSpline
210
0.0
220
0.0
230
1.0
 70
    12
 71
     2
 72
     6
 73
     3
 74
     0
 42
0.0000000001
 43
0.0000000001
 40
0.0
 40
0.0
 40
0.0
 40
9.814675284910392
 40
9.814675284910392
 40
9.814675284910392
 10
206.4791564642517
 20
37.74461925541245
 30
0.0
 41
1.0
 10
206.4800333535615
 20
42.65195721869961
 30
0.0
 41
0.9999998779855677
 10
206.4760618641568
 20
47.55929365327655
 30
0.0
 41
1.0
  0
SPLINE
  5
65
330
1F
100
AcDbEntity
  8
MAKE2D_VISIBLE_LINES
100
AcDbSpline
210
0.0
220
0.0
230
1.0
 70
    24
 71
     2
 72
     6
 73
     3
 74
     0
 42
0.0000000001
 43
0.0000000001
 40
0.0
 40
0.0
 40
0.0
 40
1.100000000000009
 40
1.100000000000009
 40
1.100000000000009
 10
167.2091665105779
 20
59.58929362995535
 30
0.0
 10
166.6591665105779
 20
59.58929362995535
 30
0.0
 10
166.1091665105779
 20
59.58929362995535
 30
0.0
  0
SPLINE
  5
66
330
1F
100
AcDbEntity
  8
MAKE2D_VISIBLE_LINES
100
AcDbSpline
210
0.0
220
0.0
230
1.0
 70
    24
 71
     2
 72
     6
 73
     3
 74
     0
 42
0.0000000001
 43
0.0000000001
 40
0.0
 40
0.0
 40
0.0
 40
81.00065125092434
 40
81.00065125092434
 40
81.00065125092434
 10
206.4791564642521
 20
37.74461925541245
 30
0.0
 10
206.4791567934505
 20
-2.755706370049719
 30
0.0
 10
206.4791571226489
 20
-43.25603199551188
 30
0.0
  0
SPLINE
  5
67
330
1F
100
AcDbEntity
  8
MAKE2D_VISIBLE_LINES
100
AcDbSpline
210
0.0
220
0.0
230
1.0
 70
     8
 71
     3
 72
    14
 73
    10
 74
     0
 42
0.0000000001
 43
0.0000000001
 40
0.0
 40
0.0
 40
0.0
 40
0.0
 40
3.053371541961935
 40
5.392085787382353
 40
9.928543176831962
 40
14.1970577891
 40
16.37317776632981
 40
17.74517402952401
 40
21.23897325883572
 40
21.23897325883572
 40
21.23897325883572
 40
21.23897325883572
 10
147.9160575423165
 20
48.45929363250438
 30
0.0
 10
147.9227963114804
 20
49.47517531841078
 30
0.0
 10
147.9562338548705
 20
51.28144737262588
 30
0.0
 10
148.7130891767895
 20
54.52235516644143
 30
0.0
 10
151.0300363304277
 20
57.63306587153944
 30
0.0
 10
154.5614728071975
 20
58.98139094533883
 30
0.0
 10
157.1610683120523
 20
59.13422512871578
 30
0.0
 10
159.5101057066312
 20
59.16637318974391
 30
0.0
 10
161.1306470308656
 20
59.15537317760028
 30
0.0
 10
162.2957702961224
 20
59.15929362995534
 30
0.0
  0
SPLINE
  5
68
330
1F
100
AcDbEntity
  8
MAKE2D_VISIBLE_LINES
100
AcDbSpline
210
0.0
220
0.0
230
1.0
 70
    24
 71
     2
 72
     6
 73
     3
 74
     0
 42
0.0000000001
 43
0.0000000001
 40
0.0
 40
0.0
 40
0.0
 40
14.89839621448206
 40
14.89839621448206
 40
14.89839621448206
 10
162.2957702961224
 20
59.15929362995534
 30
0.0
 10
169.7449684033634
 20
59.15929362995534
 30
0.0
 10
177.1941665106045
 20
59.15929362995534
 30
0.0
  0
SPLINE
  5
69
330
1F
100
AcDbEntity
  8
MAKE2D_VISIBLE_LINES
100
AcDbSpline
210
0.0
220
0.0
230
1.0
 70
    12
 71
     2
 72
     6
 73
     3
 74
     0
 42
0.0000000001
 43
0.0000000001
 40
0.0
 40
0.0
 40
0.0
 40
0.9000088053755131
 40
0.9000088053755131
 40
0.9000088053755131
 10
147.9122829318216
 20
-53.07070636966983
 30
0.0
 41
1.0
 10
147.9130112045681
 20
-53.52071117813814
 30
0.0
 41
0.9999966830887075
 10
147.9160575415446
 20
-53.9707062646189
 30
0.0
 41
1.0
  0
SPLINE
  5
6A
330
1F
100
AcDbEntity
  8
MAKE2D_VISIBLE_LINES_-_TAN
100
AcDbSpline
210
0.0
220
0.0
230
1.0
 70
    12
 71
     2
 72
     6
 73
     3
 74
     0
 42
0.0000000001
 43
0.0000000001
 40
0.0
 40
0.0
 40
0.0
 40
0.6320048604815331
 40
0.6320048604815331
 40
0.6320048604815331
 10
148.5442877923015
 20
-53.07070635510856
 30
0.0
 41
1.0
 10
148.2282853620616
 20
-53.07070757545767
 30
0.0
 41
0.9999999999926318
 10
147.9122829318216
 20
-53.07070636967082
 30
0.0
 41
1.0
  0
SPLINE
  5
6B
330
1F
100
AcDbEntity
  8
MAKE2D_VISIBLE_LINES_-_TAN
100
AcDbSpline
210
0.0
220
0.0
230
1.0
 70
    12
 71
     2
 72
     6
 73
     3
 74
     0
 42
0.0000000001
 43
0.0000000001
 40
0.0
 40
0.0
 40
0.0
 40
0.6319777621743239
 40
0.6319777621743239
 40
0.6319777621743239
 10
206.4760518420796
 20
-53.07070634703224
 30
0.0
 41
1.0
 10
206.1600629609933
 20
-53.07070758872351
 30
0.0
 41
0.999999999992339
 10
205.8440740799069
 20
-53.07070635664675
 30
0.0
 41
1.0
  0
SPLINE
  5
6C
330
1F
100
AcDbEntity
  8
MAKE2D_VISIBLE_LINES_-_TAN
100
AcDbSpline
210
0.0
220
0.0
230
1.0
 70
    24
 71
     2
 72
     6
 73
     3
 74
     0
 42
0.0000000001
 43
0.0000000001
 40
0.0
 40
0.0
 40
0.0
 40
0.6274087245627982
 40
0.6274087245627982
 40
0.6274087245627982
 10
177.1941665106045
 20
59.15929362995534
 30
0.0
 10
177.1941665105973
 20
58.84558926767394
 30
0.0
 10
177.1941665105901
 20
58.53188490539254
 30
0.0
  0
SPLINE
  5
6D
330
1F
100
AcDbEntity
  8
MAKE2D_VISIBLE_LINES_-_TAN
100
AcDbSpline
210
0.0
220
0.0
230
1.0
 70
    24
 71
     2
 72
     6
 73
     3
 74
     0
 42
0.0000000001
 43
0.0000000001
 40
0.0
 40
0.0
 40
0.0
 40
0.3000069913910725
 40
0.3000069913910725
 40
0.3000069913910725
 10
148.5442877923015
 20
-53.07070635510967
 30
0.0
 10
148.6942912879971
 20
-53.07070636226497
 30
0.0
 10
148.8442947836926
 20
-53.07070636942026
 30
0.0
  0
SPLINE
  5
6E
330
1F
100
AcDbEntity
  8
MAKE2D_VISIBLE_LINES
100
AcDbSpline
210
0.0
220
0.0
230
1.0
 70
    12
 71
     2
 72
     6
 73
     3
 74
     0
 42
0.0000000001
 43
0.0000000001
 40
0.0
 40
0.0
 40
0.0
 40
9.814667996342308
 40
9.814667996342308
 40
9.814667996342308
 10
148.5442876981185
 20
47.55929362407166
 30
0.0
 41
1.0
 10
148.5402675475014
 20
42.65196086159566
 30
0.0
 41
0.9999998743765139
 10
148.5411669542862
 20
37.74462653486096
 30
0.0
 41
1.0
  0
SPLINE
  5
6F
330
1F
100
AcDbEntity
  8
MAKE2D_VISIBLE_LINES
100
AcDbSpline
210
0.0
220
0.0
230
1.0
 70
    24
 71
     2
 72
     6
 73
     3
 74
     0
 42
0.0000000001
 43
0.0000000001
 40
0.0
 40
0.0
 40
0.0
 40
56.69976466969989
 40
56.69976466969989
 40
56.69976466969989
 10
205.5440590766601
 20
47.5592936293403
 30
0.0
 10
177.1941767418102
 20
47.55929362933315
 30
0.0
 10
148.8442944069602
 20
47.55929362932601
 30
0.0
  0
SPLINE
  5
70
330
1F
100
AcDbEntity
  8
MAKE2D_VISIBLE_LINES
100
AcDbSpline
210
0.0
220
0.0
230
1.0
 70
    12
 71
     2
 72
     6
 73
     3
 74
     0
 42
0.0000000001
 43
0.0000000001
 40
0.0
 40
0.0
 40
0.0
 40
0.0511496542186363
 40
0.0511496542186363
 40
0.0511496542186363
 10
148.9003661443855
 20
-53.12666123849841
 30
0.0
 41
1.0
 10
148.9184701994709
 20
-53.14472542879646
 30
0.0
 41
0.9999999999966727
 10
148.9365743477548
 20
-53.16278952568998
 30
0.0
 41
1.0
  0
SPLINE
  5
71
330
1F
100
AcDbEntity
  8
MAKE2D_VISIBLE_LINES
100
AcDbSpline
210
0.0
220
0.0
230
1.0
 70
    24
 71
     2
 72
     6
 73
     3
 74
     0
 42
0.0000000001
 43
0.0000000001
 40
0.0
 40
0.0
 40
0.0
 40
0.0237563578045363
 40
0.0237563578045363
 40
0.0237563578045363
 10
148.8783612680289
 20
-53.10470502929199
 30
0.0
 10
148.8867697043466
 20
-53.11309486437534
 30
0.0
 10
148.8951781406643
 20
-53.12148469945868
 30
0.0
  0
SPLINE
  5
72
330
1F
100
AcDbEntity
  8
MAKE2D_VISIBLE_LINES
100
AcDbSpline
210
0.0
220
0.0
230
1.0
 70
    24
 71
     2
 72
     6
 73
     3
 74
     0
 42
0.0000000001
 43
0.0000000001
 40
0.0
 40
0.0
 40
0.0
 40
56.4993353108334
 40
56.4993353108334
 40
56.4993353108334
 10
148.9445088356998
 20
-53.17070637004464
 30
0.0
 10
177.1941764911165
 20
-53.17070637004464
 30
0.0
 10
205.4438441465332
 20
-53.17070637004464
 30
0.0
  0
SPLINE
  5
73
330
1F
100
AcDbEntity
  8
MAKE2D_VISIBLE_LINES
100
AcDbSpline
210
0.0
220
0.0
230
1.0
 70
    12
 71
     2
 72
     6
 73
     3
 74
     0
 42
0.0000000001
 43
0.0000000001
 40
0.0
 40
0.0
 40
0.0
 40
0.1303719568754726
 40
0.1303719568754726
 40
0.1303719568754726
 10
205.544063920225
 20
-53.07071084299561
 30
0.0
 41
1.0
 10
205.4979190292123
 20
-53.11675278929089
 30
0.0
 41
0.9999999999962127
 10
205.4517738847726
 20
-53.16279448158325
 30
0.0
 41
1.0
  0
SPLINE
  5
74
330
1F
100
AcDbEntity
  8
MAKE2D_VISIBLE_LINES_-_TAN
100
AcDbSpline
210
0.0
220
0.0
230
1.0
 70
    24
 71
     2
 72
     6
 73
     3
 74
     0
 42
0.0000000001
 43
0.0000000001
 40
0.0
 40
0.0
 40
0.0
 40
0.0999589846773575
 40
0.0999589846773575
 40
0.0999589846773575
 10
177.2173055365296
 20
-63.64329647330601
 30
0.0
 10
177.2173962559216
 20
-63.69327588331077
 30
0.0
 10
177.2174869753137
 20
-63.74325529331553
 30
0.0
  0
SPLINE
  5
75
330
1F
100
AcDbEntity
  8
MAKE2D_VISIBLE_LINES
100
AcDbSpline
210
0.0
220
0.0
230
1.0
 70
    24
 71
     2
 72
     6
 73
     3
 74
     0
 42
0.0000000001
 43
0.0000000001
 40
0.0
 40
0.0
 40
0.0
 40
56.4993354093387
 40
56.4993354093387
 40
56.4993354093387
 10
205.4438438736902
 20
47.65929362995534
 30
0.0
 10
177.1941761690209
 20
47.65929362995534
 30
0.0
 10
148.9445084643515
 20
47.65929362995534
 30
0.0
  0
SPLINE
  5
76
330
1F
100
AcDbEntity
  8
MAKE2D_VISIBLE_LINES
100
AcDbSpline
210
0.0
220
0.0
230
1.0
 70
    12
 71
     2
 72
     6
 73
     3
 74
     0
 42
0.0000000001
 43
0.0000000001
 40
0.0
 40
0.0
 40
0.0
 40
0.0696872580182269
 40
0.0696872580182269
 40
0.0696872580182269
 10
205.4931750362346
 20
47.61007218816256
 30
0.0
 41
1.0
 10
205.4685095595437
 20
47.63468301387363
 30
0.0
 41
0.9999999999909712
 10
205.4438438736909
 20
47.65929362995594
 30
0.0
 41
1.0
  0
SPLINE
  5
77
330
1F
100
AcDbEntity
  8
MAKE2D_VISIBLE_LINES
100
AcDbSpline
210
0.0
220
0.0
230
1.0
 70
    24
 71
     2
 72
     6
 73
     3
 74
     0
 42
0.0000000001
 43
0.0000000001
 40
0.0
 40
0.0
 40
0.0
 40
0.0237558518198597
 40
0.0237558518198597
 40
0.0237558518198597
 10
148.8951775148901
 20
47.61007223873581
 30
0.0
 10
148.8867692128914
 20
47.60168262721793
 30
0.0
 10
148.8783609108927
 20
47.59329301570006
 30
0.0
  0
SPLINE
  5
78
330
1F
100
AcDbEntity
  8
MAKE2D_VISIBLE_LINES
100
AcDbSpline
210
0.0
220
0.0
230
1.0
 70
    12
 71
     3
 72
    18
 73
    14
 74
     0
 42
0.0000000001
 43
0.0000000001
 40
0.0
 40
0.0
 40
0.0
 40
0.0
 40
3.805478402193879
 40
6.451051096571679
 40
11.83940024920404
 40
15.72094355253627
 40
18.37794782841305
 40
19.06867169127485
 40
19.85146879370696
 40
35.31630142907278
 40
35.31630142907278
 40
35.31630142907278
 40
35.33944416913297
 40
35.33944416913297
 40
35.33944416913297
 40
35.33944416913297
 10
148.9445089057566
 20
-53.17073644743406
 30
0.0
 41
1.0
 10
148.9538630573806
 20
-54.44018019532642
 30
0.0
 41
1.0
 10
148.9172062277531
 20
-56.59356995647384
 30
0.0
 41
1.0
 10
149.9473186539663
 20
-60.47337916352528
 30
0.0
 41
1.0
 10
153.1537610071048
 20
-63.30878482733272
 30
0.0
 41
1.0
 10
157.2141138118324
 20
-63.65385397161254
 30
0.0
 41
1.0
 10
159.590480801391
 20
-63.63154317935038
 30
0.0
 41
1.0
 10
160.9784260764107
 20
-63.63882452054455
 30
0.0
 41
1.0
 10
166.620970627926
 20
-63.63889622616145
 30
0.0
 41
1.0
 10
172.0405974847455
 20
-63.64235144451705
 30
0.0
 41
1.0
 10
177.1941627972386
 20
-63.64329051344358
 30
0.0
 41
1.0
 10
177.2018770436246
 20
-63.64329266990186
 30
0.0
 41
0.9999999998384307
 10
177.2095912900561
 20
-63.64329465652266
 30
0.0
 41
0.999999999838431
 10
177.2173055365296
 20
-63.64329647330605
 30
0.0
 41
1.0
  0
SPLINE
  5
79
330
1F
100
AcDbEntity
  8
MAKE2D_VISIBLE_LINES_-_TAN
100
AcDbSpline
210
0.0
220
0.0
230
1.0
 70
    24
 71
     2
 72
     6
 73
     3
 74
     0
 42
0.0000000001
 43
0.0000000001
 40
0.0
 40
0.0
 40
0.0
 40
0.0863956311583739
 40
0.0863956311583739
 40
0.0863956311583739
 10
177.1941685802643
 20
58.14548925785247
 30
0.0
 10
177.1941752497821
 20
58.18868707291679
 30
0.0
 10
177.1941819192999
 20
58.23188488798111
 30
0.0
  0
SPLINE
  5
7A
330
1F
100
AcDbEntity
  8
MAKE2D_VISIBLE_LINES
100
AcDbSpline
210
0.0
220
0.0
230
1.0
 70
     8
 71
     3
 72
    15
 73
    11
 74
     0
 42
0.0000000001
 43
0.0000000001
 40
0.0
 40
0.0
 40
0.0
 40
0.0
 40
3.803396604722584
 40
6.455483411064119
 40
11.84250122814063
 40
15.71601159512507
 40
18.41047375872152
 40
19.15926209198471
 40
19.89389267218046
 40
35.31599194159882
 40
35.31599194159882
 40
35.31599194159882
 40
35.31599194159882
 10
205.4438438736902
 20
47.65929362995534
 30
0.0
 10
205.4345461085553
 20
48.92838347901416
 30
0.0
 10
205.4709621732123
 20
51.08233206379113
 30
0.0
 10
204.4407474532604
 20
54.96474416213857
 30
0.0
 10
201.2328950869198
 20
57.7963491717468
 30
0.0
 10
197.1633672392843
 20
58.14310468010588
 30
0.0
 10
194.7588514815727
 20
58.11908727965157
 30
0.0
 10
193.3545486927185
 20
58.1269992738393
 30
0.0
 10
187.7224170985599
 20
58.12735857011243
 30
0.0
 10
182.3333934216295
 20
58.13075905037678
 30
0.0
 10
177.1941664489413
 20
58.13168488640774
 30
0.0
  0
SPLINE
  5
7B
330
1F
100
AcDbEntity
  8
MAKE2D_VISIBLE_LINES_-_TAN
100
AcDbSpline
210
0.0
220
0.0
230
1.0
 70
    12
 71
     2
 72
     6
 73
     3
 74
     0
 42
0.0000000001
 43
0.0000000001
 40
0.0
 40
0.0
 40
0.0
 40
2.567514037453518
 40
2.567514037453518
 40
2.567514037453518
 10
177.1941665105771
 20
31.69871742400055
 30
0.0
 41
1.0
 10
177.1220495488868
 20
33.05471837088613
 30
0.0
 41
0.9200577408787548
 10
178.0496473555375
 20
34.04643492979537
 30
0.0
 41
1.0
  0
SPLINE
  5
7C
330
1F
100
AcDbEntity
  8
MAKE2D_VISIBLE_LINES_-_TAN
100
AcDbSpline
210
0.0
220
0.0
230
1.0
 70
    12
 71
     2
 72
     6
 73
     3
 74
     0
 42
0.0000000001
 43
0.0000000001
 40
0.0
 40
0.0
 40
0.0
 40
2.629574408688082
 40
2.629574408688082
 40
2.629574408688082
 10
180.317378376953
 20
35.15929362995597
 30
0.0
 41
1.0
 10
180.399211225709
 20
33.77472926160267
 30
0.0
 41
0.923721786985931
 10
179.4771868334867
 20
32.73858924915447
 30
0.0
 41
1.0
  0
SPLINE
  5
7D
330
1F
100
AcDbEntity
  8
MAKE2D_VISIBLE_LINES_-_TAN
100
AcDbSpline
210
0.0
220
0.0
230
1.0
 70
    12
 71
     2
 72
     6
 73
     3
 74
     0
 42
0.0000000001
 43
0.0000000001
 40
0.0
 40
0.0
 40
0.0
 40
2.587259142640814
 40
2.587259142640814
 40
2.587259142640814
 10
178.0496473555376
 20
34.04643492979535
 30
0.0
 41
1.0
 10
178.9625389728826
 20
35.05315446750603
 30
0.0
 41
0.9293941351735091
 10
180.317378376953
 20
35.15929362995597
 30
0.0
 41
1.0
  0
SPLINE
  5
7E
330
1F
100
AcDbEntity
  8
MAKE2D_VISIBLE_LINES
100
AcDbSpline
210
0.0
220
0.0
230
1.0
 70
    24
 71
     2
 72
     6
 73
     3
 74
     0
 42
0.0000000001
 43
0.0000000001
 40
0.0
 40
0.0
 40
0.0
 40
81.00063178416242
 40
81.00063178416242
 40
81.00063178416242
 10
205.8471639699579
 20
-43.25602226213992
 30
0.0
 10
205.8471614293377
 20
-2.755706370058789
 30
0.0
 10
205.8471588887176
 20
37.74460952202234
 30
0.0
  0
SPLINE
  5
7F
330
1F
100
AcDbEntity
  8
MAKE2D_VISIBLE_LINES
100
AcDbSpline
210
0.0
220
0.0
230
1.0
 70
    12
 71
     2
 72
     6
 73
     3
 74
     0
 42
0.0000000001
 43
0.0000000001
 40
0.0
 40
0.0
 40
0.0
 40
9.81466798645632
 40
9.81466798645632
 40
9.81466798645632
 10
148.5411687291314
 20
-43.25603927492165
 30
0.0
 41
1.0
 10
148.5402694669359
 20
-48.1633735964108
 30
0.0
 41
0.9999998744770953
 10
148.5442877923021
 20
-53.07070635510967
 30
0.0
 41
1.0
  0
SPLINE
  5
80
330
1F
100
AcDbEntity
  8
MAKE2D_VISIBLE_LINES_-_TAN
100
AcDbSpline
210
0.0
220
0.0
230
1.0
 70
    24
 71
     2
 72
     6
 73
     3
 74
     0
 42
0.0000000001
 43
0.0000000001
 40
0.0
 40
0.0
 40
0.0
 40
0.300006708840968
 40
0.300006708840968
 40
0.300006708840968
 10
148.8442944069602
 20
47.55929362932601
 30
0.0
 10
148.6942910525397
 20
47.55929362669883
 30
0.0
 10
148.5442876981193
 20
47.55929362407166
 30
0.0
  0
SPLINE
  5
81
330
1F
100
AcDbEntity
  8
MAKE2D_VISIBLE_LINES
100
AcDbSpline
210
0.0
220
0.0
230
1.0
 70
    12
 71
     2
 72
     6
 73
     3
 74
     0
 42
0.0000000001
 43
0.0000000001
 40
0.0
 40
0.0
 40
0.0
 40
0.5384133824685665
 40
0.5384133824685665
 40
0.5384133824685665
 10
165.6883912543646
 20
52.7659979963457
 30
0.0
 41
1.0
 10
165.4948511322079
 20
52.57452415661815
 30
0.0
 41
0.983317013029049
 10
165.3826147061197
 20
52.32648586351938
 30
0.0
 41
1.0
  0
SPLINE
  5
82
330
1F
100
AcDbEntity
  8
MAKE2D_VISIBLE_LINES
100
AcDbSpline
210
0.0
220
0.0
230
1.0
 70
    12
 71
     2
 72
     8
 73
     5
 74
     0
 42
0.0000000001
 43
0.0000000001
 40
0.0
 40
0.0
 40
0.0
 40
4.869468613064174
 40
4.869468613064174
 40
9.738937226128368
 40
9.738937226128368
 40
9.738937226128368
 10
157.1891665105779
 20
54.90929362995534
 30
0.0
 41
1.0
 10
154.0891665105779
 20
54.90929362995534
 30
0.0
 41
0.7071067811865471
 10
154.0891665105779
 20
51.80929362995535
 30
0.0
 41
1.0
 10
154.0891665105779
 20
48.70929362995533
 30
0.0
 41
0.707106781186543
 10
157.1891665105779
 20
48.70929362995535
 30
0.0
 41
1.0
  0
SPLINE
  5
83
330
1F
100
AcDbEntity
  8
MAKE2D_VISIBLE_LINES_-_TAN
100
AcDbSpline
210
0.0
220
0.0
230
1.0
 70
    24
 71
     2
 72
     6
 73
     3
 74
     0
 42
0.0000000001
 43
0.0000000001
 40
0.0
 40
0.0
 40
0.0
 40
0.3000149082330106
 40
0.3000149082330106
 40
0.3000149082330106
 10
205.8440739848931
 20
47.55929360655453
 30
0.0
 10
205.6940665307766
 20
47.55929361794742
 30
0.0
 10
205.5440590766601
 20
47.5592936293403
 30
0.0
  0
SPLINE
  5
84
330
1F
100
AcDbEntity
  8
MAKE2D_VISIBLE_LINES
100
AcDbSpline
210
0.0
220
0.0
230
1.0
 70
    24
 71
     2
 72
     6
 73
     3
 74
     0
 42
0.0000000001
 43
0.0000000001
 40
0.0
 40
0.0
 40
0.0
 40
56.6997646733836
 40
56.6997646733836
 40
56.6997646733836
 10
148.8442947836926
 20
-53.07070636942026
 30
0.0
 10
177.1941771203844
 20
-53.07070636942294
 30
0.0
 10
205.5440594570762
 20
-53.07070636942561
 30
0.0
  0
SPLINE
  5
85
330
1F
100
AcDbEntity
  8
MAKE2D_VISIBLE_LINES
100
AcDbSpline
210
0.0
220
0.0
230
1.0
 70
    24
 71
     2
 72
     6
 73
     3
 74
     0
 42
0.0000000001
 43
0.0000000001
 40
0.0
 40
0.0
 40
0.0
 40
81.00066580978262
 40
81.00066580978262
 40
81.00066580978262
 10
148.5411669542886
 20
37.74462653486096
 30
0.0
 10
148.54116784171
 20
-2.755706370030346
 30
0.0
 10
148.5411687291314
 20
-43.25603927492165
 30
0.0
  0
SPLINE
  5
86
330
1F
100
AcDbEntity
  8
MAKE2D_VISIBLE_LINES
100
AcDbSpline
210
0.0
220
0.0
230
1.0
 70
    12
 71
     2
 72
     8
 73
     5
 74
     0
 42
0.0000000001
 43
0.0000000001
 40
0.0
 40
0.0
 40
0.0
 40
4.869468613064167
 40
4.869468613064167
 40
9.73893722612835
 40
9.73893722612835
 40
9.73893722612835
 10
157.1891665105779
 20
48.70929362995535
 30
0.0
 41
1.0
 10
160.2891665105779
 20
48.70929362995536
 30
0.0
 41
0.7071067811865479
 10
160.2891665105779
 20
51.80929362995535
 30
0.0
 41
1.0
 10
160.2891665105779
 20
54.90929362995537
 30
0.0
 41
0.7071067811865452
 10
157.1891665105779
 20
54.90929362995536
 30
0.0
 41
1.0
  0
SPLINE
  5
87
330
1F
100
AcDbEntity
  8
MAKE2D_VISIBLE_LINES
100
AcDbSpline
210
0.0
220
0.0
230
1.0
 70
    12
 71
     2
 72
     6
 73
     3
 74
     0
 42
0.0000000001
 43
0.0000000001
 40
0.0
 40
0.0
 40
0.0
 40
9.814684979844134
 40
9.814684979844134
 40
9.814684979844134
 10
205.8471588887176
 20
37.74460952202234
 30
0.0
 41
1.0
 10
205.8480747559159
 20
42.65195233697536
 30
0.0
 41
0.9999998745259899
 10
205.8440739848929
 20
47.55929360655453
 30
0.0
 41
1.0
  0
SPLINE
  5
88
330
1F
100
AcDbEntity
  8
MAKE2D_VISIBLE_LINES
100
AcDbSpline
210
0.0
220
0.0
230
1.0
 70
    12
 71
     2
 72
     6
 73
     3
 74
     0
 42
0.0000000001
 43
0.0000000001
 40
0.0
 40
0.0
 40
0.0
 40
9.814684977466923
 40
9.814684977466923
 40
9.814684977466923
 10
205.8440740799076
 20
-53.07070635664258
 30
0.0
 41
1.0
 10
205.8480353151115
 20
-48.16336507009542
 30
0.0
 41
0.9999998787796752
 10
205.8471639699599
 20
-43.25602226213992
 30
0.0
 41
1.0
  0
SPLINE
  5
89
330
1F
100
AcDbEntity
  8
MAKE2D_VISIBLE_LINES_-_TAN
100
AcDbSpline
210
0.0
220
0.0
230
1.0
 70
    24
 71
     2
 72
     6
 73
     3
 74
     0
 42
0.0000000001
 43
0.0000000001
 40
0.0
 40
0.0
 40
0.0
 40
0.3000146228307304
 40
0.3000146228307304
 40
0.3000146228307304
 10
205.5440594570762
 20
-53.07070636942561
 30
0.0
 10
205.6940667684916
 20
-53.0707063630341
 30
0.0
 10
205.8440740799069
 20
-53.07070635664258
 30
0.0
  0
SPLINE
  5
8A
330
1F
100
AcDbEntity
  8
MAKE2D_VISIBLE_LINES
100
AcDbSpline
210
0.0
220
0.0
230
1.0
 70
    12
 71
     2
 72
     6
 73
     3
 74
     0
 42
0.0000000001
 43
0.0000000001
 40
0.0
 40
0.0
 40
0.0
 40
0.9000090801260651
 40
0.9000090801260651
 40
0.9000090801260651
 10
205.8440739848931
 20
47.55929360655453
 30
0.0
 41
1.0
 10
205.843310320372
 20
48.00929846809755
 30
0.0
 41
0.9999967685287424
 10
205.8402586416274
 20
48.45929363013009
 30
0.0
 41
1.0
  0
SPLINE
  5
8B
330
1F
100
AcDbEntity
  8
MAKE2D_VISIBLE_LINES_-_TAN
100
AcDbSpline
210
0.0
220
0.0
230
1.0
 70
    24
 71
     2
 72
     6
 73
     3
 74
     0
 42
0.0000000001
 43
0.0000000001
 40
0.0
 40
0.0
 40
0.0
 40
0.3000156941969723
 40
0.3000156941969723
 40
0.3000156941969723
 10
148.8480900802771
 20
48.45929362995504
 30
0.0
 10
148.6980822331786
 20
48.45929362471801
 30
0.0
 10
148.5480743860801
 20
48.45929361948099
 30
0.0
  0
SPLINE
  5
8C
330
1F
100
AcDbEntity
  8
MAKE2D_VISIBLE_LINES
100
AcDbSpline
210
0.0
220
0.0
230
1.0
 70
     8
 71
     3
 72
    13
 73
     9
 74
     0
 42
0.0000000001
 43
0.0000000001
 40
0.0
 40
0.0
 40
0.0
 40
0.0
 40
19.55956058145681
 40
21.70493991968434
 40
23.47416987436174
 40
28.95630205747766
 40
31.68112057273989
 40
35.1445788352967
 40
35.1445788352967
 40
35.1445788352967
 40
35.1445788352967
 10
177.1941665105667
 20
-64.04329764548183
 30
0.0
 10
183.7118935506541
 20
-63.96163079179357
 30
0.0
 10
190.9514571538325
 20
-64.14484143808171
 30
0.0
 10
198.7721334328228
 20
-63.95643517769177
 30
0.0
 10
201.8475140823181
 20
-63.19880352811042
 30
0.0
 10
204.5792522803193
 20
-60.98818044495775
 30
0.0
 10
205.7975769966188
 20
-57.17911418348545
 30
0.0
 10
205.8307942213611
 20
-55.13253129755199
 30
0.0
 10
205.840258847196
 20
-53.97070637169625
 30
0.0
  0
SPLINE
  5
8D
330
1F
100
AcDbEntity
  8
MAKE2D_VISIBLE_LINES_-_TAN
100
AcDbSpline
210
0.0
220
0.0
230
1.0
 70
    24
 71
     2
 72
     6
 73
     3
 74
     0
 42
0.0000000001
 43
0.0000000001
 40
0.0
 40
0.0
 40
0.0
 40
0.6274087245628053
 40
0.6274087245628053
 40
0.6274087245628053
 10
177.1941665106113
 20
-64.67070637004464
 30
0.0
 10
177.194166510589
 20
-64.35700200776324
 30
0.0
 10
177.1941665105667
 20
-64.04329764548183
 30
0.0
  0
SPLINE
  5
8E
330
1F
100
AcDbEntity
  8
MAKE2D_VISIBLE_LINES
100
AcDbSpline
210
0.0
220
0.0
230
1.0
 70
     8
 71
     3
 72
    14
 73
    10
 74
     0
 42
0.0000000001
 43
0.0000000001
 40
0.0
 40
0.0
 40
0.0
 40
0.0
 40
3.053371571312135
 40
5.392085814252783
 40
9.928543198912712
 40
14.19705780894085
 40
16.37317778592204
 40
17.74517404907884
 40
21.23897327835623
 40
21.23897327835623
 40
21.23897327835623
 40
21.23897327835623
 10
147.9160575422684
 20
-53.9707063658628
 30
0.0
 10
147.9227963112642
 20
-54.98658806151988
 30
0.0
 10
147.9562338525848
 20
-56.79286012488209
 30
0.0
 10
148.7130891768253
 20
-60.03376792594998
 30
0.0
 10
151.0300363315229
 20
-63.14447862658155
 30
0.0
 10
154.5614728080637
 20
-64.49280369440447
 30
0.0
 10
157.1610683121411
 20
-64.64563787466442
 30
0.0
 10
159.5101057066971
 20
-64.67778593298596
 30
0.0
 10
161.1306470308594
 20
-64.66678591901923
 30
0.0
 10
162.2957702961224
 20
-64.67070637004464
 30
0.0
  0
SPLINE
  5
8F
330
1F
100
AcDbEntity
  8
MAKE2D_VISIBLE_LINES
100
AcDbSpline
210
0.0
220
0.0
230
1.0
 70
    12
 71
     2
 72
     6
 73
     3
 74
     0
 42
0.0000000001
 43
0.0000000001
 40
0.0
 40
0.0
 40
0.0
 40
0.900009029488388
 40
0.900009029488388
 40
0.900009029488388
 10
148.8480931316476
 20
-53.97070637004474
 30
0.0
 41
1.0
 10
148.845024161972
 20
-53.52071130672261
 30
0.0
 41
0.9999966211974372
 10
148.8442947836926
 20
-53.07070636942026
 30
0.0
 41
1.0
  0
SPLINE
  5
90
330
1F
100
AcDbEntity
  8
MAKE2D_VISIBLE_LINES
100
AcDbSpline
210
0.0
220
0.0
230
1.0
 70
    24
 71
     2
 72
     6
 73
     3
 74
     0
 42
0.0000000001
 43
0.0000000001
 40
0.0
 40
0.0
 40
0.0
 40
14.89823712022474
 40
14.89823712022474
 40
14.89823712022474
 10
177.1941665106113
 20
-64.67070637004464
 30
0.0
 10
169.745047950499
 20
-64.67070637004464
 30
0.0
 10
162.2959293903866
 20
-64.67070637004464
 30
0.0
  0
SPLINE
  5
91
330
1F
100
AcDbEntity
  8
MAKE2D_VISIBLE_LINES
100
AcDbSpline
210
0.0
220
0.0
230
1.0
 70
    24
 71
     2
 72
     6
 73
     3
 74
     0
 42
0.0000000001
 43
0.0000000001
 40
0.0
 40
0.0
 40
0.0
 40
14.89839621442229
 40
14.89839621442229
 40
14.89839621442229
 10
192.0925627250336
 20
-64.67070637004464
 30
0.0
 10
184.6433646178225
 20
-64.67070637004464
 30
0.0
 10
177.1941665106113
 20
-64.67070637004464
 30
0.0
  0
SPLINE
  5
92
330
1F
100
AcDbEntity
  8
MAKE2D_VISIBLE_LINES
100
AcDbSpline
210
0.0
220
0.0
230
1.0
 70
    12
 71
     2
 72
     6
 73
     3
 74
     0
 42
0.0000000001
 43
0.0000000001
 40
0.0
 40
0.0
 40
0.0
 40
0.9000092270766286
 40
0.9000092270766286
 40
0.9000092270766286
 10
148.5480743860802
 20
48.45929361948099
 30
0.0
 41
1.0
 10
148.5448739319658
 20
48.00929912135214
 30
0.0
 41
0.9999957814170167
 10
148.5442876981193
 20
47.55929362407166
 30
0.0
 41
1.0
  0
SPLINE
  5
93
330
1F
100
AcDbEntity
  8
MAKE2D_VISIBLE_LINES_-_TAN
100
AcDbSpline
210
0.0
220
0.0
230
1.0
 70
    24
 71
     2
 72
     6
 73
     3
 74
     0
 42
0.0000000001
 43
0.0000000001
 40
0.0
 40
0.0
 40
0.0
 40
0.3000020201452571
 40
0.3000020201452571
 40
0.3000020201452571
 10
205.840258847196
 20
-53.97070637169627
 30
0.0
 10
205.6902578371233
 20
-53.97070637087046
 30
0.0
 10
205.5402568270507
 20
-53.97070637004465
 30
0.0
  0
SPLINE
  5
94
330
1F
100
AcDbEntity
  8
MAKE2D_VISIBLE_LINES_-_TAN
100
AcDbSpline
210
0.0
220
0.0
230
1.0
 70
     8
 71
     3
 72
    11
 73
     7
 74
     0
 42
0.0000000001
 43
0.0000000001
 40
0.0
 40
0.0
 40
0.0
 40
0.0
 40
1.101116420447105
 40
1.870845707905016
 40
2.513985616515972
 40
3.118128715144134
 40
3.118128715144134
 40
3.118128715144134
 40
3.118128715144134
 10
182.1851946495369
 20
21.75130710720036
 30
0.0
 10
181.9720997690339
 20
21.45264163506232
 30
0.0
 10
181.6080612794341
 20
20.94505007738407
 30
0.0
 10
181.0181818153155
 20
20.34470553337691
 30
0.0
 10
180.4342563450764
 20
19.99529096675255
 30
0.0
 10
180.0177619837671
 20
19.91910223373662
 30
0.0
 10
179.8165959381909
 20
19.91922876804254
 30
0.0
  0
SPLINE
  5
95
330
1F
100
AcDbEntity
  8
MAKE2D_VISIBLE_LINES_-_TAN
100
AcDbSpline
210
0.0
220
0.0
230
1.0
 70
    12
 71
     2
 72
     6
 73
     3
 74
     0
 42
0.0000000001
 43
0.0000000001
 40
0.0
 40
0.0
 40
0.0
 40
0.6320174806572
 40
0.6320174806572
 40
0.6320174806572
 10
148.5480750227697
 20
-53.97070635234333
 30
0.0
 41
1.0
 10
148.2320662825193
 20
-53.9707185177955
 30
0.0
 41
0.999999999259806
 10
147.9160575422684
 20
-53.9707063658626
 30
0.0
 41
1.0
  0
SPLINE
  5
96
330
1F
100
AcDbEntity
  8
MAKE2D_VISIBLE_LINES
100
AcDbSpline
210
0.0
220
0.0
230
1.0
 70
    12
 71
     2
 72
     6
 73
     3
 74
     0
 42
0.0000000001
 43
0.0000000001
 40
0.0
 40
0.0
 40
0.0
 40
0.9000090275074655
 40
0.9000090275074655
 40
0.9000090275074655
 10
205.5440594570762
 20
-53.07070636942561
 30
0.0
 41
1.0
 10
205.5433163062906
 20
-53.52071126314631
 30
0.0
 41
0.9999966880550338
 10
205.5402568270507
 20
-53.97070637004465
 30
0.0
 41
1.0
  0
SPLINE
  5
97
330
1F
100
AcDbEntity
  8
MAKE2D_VISIBLE_LINES
100
AcDbSpline
210
0.0
220
0.0
230
1.0
 70
     8
 71
     3
 72
    14
 73
    10
 74
     0
 42
0.0000000001
 43
0.0000000001
 40
0.0
 40
0.0
 40
0.0
 40
0.0
 40
3.053371560848662
 40
5.392085789881325
 40
9.928543094285711
 40
14.19705758794038
 40
16.37317750764112
 40
17.74517373616275
 40
21.2389728781867
 40
21.2389728781867
 40
21.2389728781867
 40
21.2389728781867
 10
206.472274921512
 20
48.45929363236839
 30
0.0
 10
206.4655361718764
 20
49.47517532429694
 30
0.0
 10
206.4320986637825
 20
51.28144738100424
 30
0.0
 10
205.6752434274191
 20
54.52235516291033
 30
0.0
 10
203.35829640135
 20
57.63306587460052
 30
0.0
 10
199.8268600141126
 20
58.98139095638018
 30
0.0
 10
197.227264579617
 20
59.13422513391951
 30
0.0
 10
194.8782272447032
 20
59.16637319332075
 30
0.0
 10
193.2576859612377
 20
59.15537317861239
 30
0.0
 10
192.0925627250336
 20
59.15929362995534
 30
0.0
  0
SPLINE
  5
98
330
1F
100
AcDbEntity
  8
MAKE2D_VISIBLE_LINES
100
AcDbSpline
210
0.0
220
0.0
230
1.0
 70
    12
 71
     2
 72
     6
 73
     3
 74
     0
 42
0.0000000001
 43
0.0000000001
 40
0.0
 40
0.0
 40
0.0
 40
0.9000089319066761
 40
0.9000089319066761
 40
0.9000089319066761
 10
206.4760618641724
 20
-53.07070638527401
 30
0.0
 41
1.0
 10
206.4753173339498
 20
-53.52071121310858
 30
0.0
 41
0.9999967407387744
 10
206.4722749723912
 20
-53.97070637245568
 30
0.0
 41
1.0
  0
SPLINE
  5
99
330
1F
100
AcDbEntity
  8
MAKE2D_VISIBLE_LINES
100
AcDbSpline
210
0.0
220
0.0
230
1.0
 70
     8
 71
     3
 72
    14
 73
    10
 74
     0
 42
0.0000000001
 43
0.0000000001
 40
0.0
 40
0.0
 40
0.0
 40
0.0
 40
19.61218736262047
 40
21.79362544701609
 40
23.55669894396276
 40
26.38111485618766
 40
29.00493157581794
 40
31.65084234217562
 40
35.14252805565725
 40
35.14252805565725
 40
35.14252805565725
 40
35.14252805565725
 10
177.1941658031587
 20
58.53188490517456
 30
0.0
 10
170.6567457938809
 20
58.46298348951424
 30
0.0
 10
163.3921939760862
 20
58.66161665502081
 30
0.0
 10
155.5401032577422
 20
58.44056701631354
 30
0.0
 10
153.3368035650215
 20
57.84229225185477
 30
0.0
 10
151.2190340353425
 20
56.65839376716319
 30
0.0
 10
149.5136259175776
 20
54.48512949914516
 30
0.0
 10
148.5832871285773
 20
51.68901943425776
 30
0.0
 10
148.5603867082541
 20
49.61787498381216
 30
0.0
 10
148.5480743860801
 20
48.45929361948099
 30
0.0
  0
SPLINE
  5
9A
330
1F
100
AcDbEntity
  8
MAKE2D_VISIBLE_LINES
100
AcDbSpline
210
0.0
220
0.0
230
1.0
 70
     8
 71
     3
 72
    17
 73
    13
 74
     0
 42
0.0000000001
 43
0.0000000001
 40
0.0
 40
0.0
 40
0.0
 40
0.0
 40
3.483945327930675
 40
6.176967599600561
 40
8.802927759436026
 40
11.64458322311106
 40
15.5473224557892
 40
18.36405513568638
 40
18.80761684654516
 40
19.47879765924789
 40
20.47261788061284
 40
35.14157598852081
 40
35.14157598852081
 40
35.14157598852081
 40
35.14157598852081
 10
205.8402586416274
 20
48.45929363013009
 30
0.0
 10
205.8243770607627
 20
49.61763611033618
 30
0.0
 10
205.8069939474267
 20
51.69330167647705
 30
0.0
 10
204.8618562150397
 20
54.51967722935362
 30
0.0
 10
203.1389215970015
 20
56.66816709948606
 30
0.0
 10
200.3573689859413
 20
58.26215671774663
 30
0.0
 10
197.1411781173146
 20
58.55337465793251
 30
0.0
 10
194.7659986413016
 20
58.51703328658949
 30
0.0
 10
193.4511996564594
 20
58.52951562297939
 30
0.0
 10
192.7495488623705
 20
58.52668314412387
 30
0.0
 10
187.3044356812787
 20
58.52962449336434
 30
0.0
 10
182.0841689242061
 20
58.52940007778957
 30
0.0
 10
177.19416651059
 20
58.53188490539254
 30
0.0
  0
SPLINE
  5
9B
330
1F
100
AcDbEntity
  8
MAKE2D_VISIBLE_LINES
100
AcDbSpline
210
0.0
220
0.0
230
1.0
 70
    12
 71
     2
 72
     6
 73
     3
 74
     0
 42
0.0000000001
 43
0.0000000001
 40
0.0
 40
0.0
 40
0.0
 40
0.9000089115251737
 40
0.9000089115251737
 40
0.9000089115251737
 10
205.840258847196
 20
-53.97070637169627
 30
0.0
 41
1.0
 10
205.8432120632359
 20
-53.5207107966206
 30
0.0
 41
0.9999973005574398
 10
205.8440740799069
 20
-53.07070635664258
 30
0.0
 41
1.0
  0
SPLINE
  5
9C
330
1F
100
AcDbEntity
  8
MAKE2D_VISIBLE_LINES
100
AcDbSpline
210
0.0
220
0.0
230
1.0
 70
    12
 71
     2
 72
     8
 73
     5
 74
     0
 42
0.0000000001
 43
0.0000000001
 40
0.0
 40
0.0
 40
0.0
 40
5.073672135547496
 40
5.073672135547496
 40
10.147344271095
 40
10.147344271095
 40
10.147344271095
 10
160.4191665105779
 20
51.80929362995535
 30
0.0
 41
1.0
 10
160.4191665105779
 20
48.57929362995537
 30
0.0
 41
0.7071067811865468
 10
157.1891665105779
 20
48.57929362995536
 30
0.0
 41
1.0
 10
153.9591665105779
 20
48.57929362995539
 30
0.0
 41
0.7071067811865521
 10
153.9591665105779
 20
51.80929362995535
 30
0.0
 41
1.0
  0
SPLINE
  5
9D
330
1F
100
AcDbEntity
  8
MAKE2D_VISIBLE_LINES
100
AcDbSpline
210
0.0
220
0.0
230
1.0
 70
    12
 71
     2
 72
     6
 73
     3
 74
     0
 42
0.0000000001
 43
0.0000000001
 40
0.0
 40
0.0
 40
0.0
 40
5.073672135547501
 40
5.073672135547501
 40
5.073672135547501
 10
157.1891665105779
 20
55.03929362995534
 30
0.0
 41
1.0
 10
160.4191665105779
 20
55.03929362995535
 30
0.0
 41
0.707106781186545
 10
160.4191665105779
 20
51.80929362995535
 30
0.0
 41
1.0
  0
SPLINE
  5
9E
330
1F
100
AcDbEntity
  8
MAKE2D_VISIBLE_LINES
100
AcDbSpline
210
0.0
220
0.0
230
1.0
 70
    12
 71
     2
 72
     6
 73
     3
 74
     0
 42
0.0000000001
 43
0.0000000001
 40
0.0
 40
0.0
 40
0.0
 40
5.073672135547534
 40
5.073672135547534
 40
5.073672135547534
 10
153.9591665105779
 20
51.80929362995535
 30
0.0
 41
1.0
 10
153.9591665105779
 20
55.03929362995539
 30
0.0
 41
0.707106781186537
 10
157.1891665105779
 20
55.03929362995534
 30
0.0
 41
1.0
  0
SPLINE
  5
9F
330
1F
100
AcDbEntity
  8
MAKE2D_VISIBLE_LINES
100
AcDbSpline
210
0.0
220
0.0
230
1.0
 70
    12
 71
     2
 72
     8
 73
     5
 74
     0
 42
0.0000000001
 43
0.0000000001
 40
0.0
 40
0.0
 40
0.0
 40
2.905973204570552
 40
2.905973204570552
 40
5.811946409141083
 40
5.811946409141083
 40
5.811946409141083
 10
168.4891665105779
 20
51.80929362995535
 30
0.0
 41
1.0
 10
168.4891665105779
 20
49.95929362995538
 30
0.0
 41
0.7071067811865557
 10
166.6391665105779
 20
49.95929362995535
 30
0.0
 41
1.0
 10
164.789166510578
 20
49.9592936299554
 30
0.0
 41
0.7071067811865638
 10
164.7891665105779
 20
51.80929362995535
 30
0.0
 41
1.0
  0
SPLINE
  5
A0
330
1F
100
AcDbEntity
  8
MAKE2D_VISIBLE_LINES
100
AcDbSpline
210
0.0
220
0.0
230
1.0
 70
    12
 71
     2
 72
     6
 73
     3
 74
     0
 42
0.0000000001
 43
0.0000000001
 40
0.0
 40
0.0
 40
0.0
 40
2.905973204570546
 40
2.905973204570546
 40
2.905973204570546
 10
166.6391665105779
 20
53.65929362995534
 30
0.0
 41
1.0
 10
168.4891665105779
 20
53.65929362995533
 30
0.0
 41
0.7071067811865611
 10
168.4891665105779
 20
51.80929362995535
 30
0.0
 41
1.0
  0
SPLINE
  5
A1
330
1F
100
AcDbEntity
  8
MAKE2D_VISIBLE_LINES
100
AcDbSpline
210
0.0
220
0.0
230
1.0
 70
    12
 71
     2
 72
     6
 73
     3
 74
     0
 42
0.0000000001
 43
0.0000000001
 40
0.0
 40
0.0
 40
0.0
 40
2.905973204570556
 40
2.905973204570556
 40
2.905973204570556
 10
164.7891665105779
 20
51.80929362995535
 30
0.0
 41
1.0
 10
164.7891665105779
 20
53.65929362995535
 30
0.0
 41
0.7071067811865421
 10
166.6391665105779
 20
53.65929362995534
 30
0.0
 41
1.0
  0
SPLINE
  5
A2
330
1F
100
AcDbEntity
  8
MAKE2D_VISIBLE_LINES
100
AcDbSpline
210
0.0
220
0.0
230
1.0
 70
    24
 71
     2
 72
     6
 73
     3
 74
     0
 42
0.0000000001
 43
0.0000000001
 40
0.0
 40
0.0
 40
0.0
 40
0.6299999999999955
 40
0.6299999999999955
 40
0.6299999999999955
 10
162.2891665105779
 20
52.31929362995537
 30
0.0
 10
162.6041665105779
 20
52.31929362995537
 30
0.0
 10
162.9191665105779
 20
52.31929362995537
 30
0.0
  0
SPLINE
  5
A3
330
1F
100
AcDbEntity
  8
MAKE2D_VISIBLE_LINES
100
AcDbSpline
210
0.0
220
0.0
230
1.0
 70
    12
 71
     2
 72
     8
 73
     5
 74
     0
 42
0.0000000001
 43
0.0000000001
 40
0.0
 40
0.0
 40
0.0
 40
0.8011061266653919
 40
0.8011061266653919
 40
1.602212253330812
 40
1.602212253330812
 40
1.602212253330812
 10
162.2891665105779
 20
51.29929362995536
 30
0.0
 41
1.0
 10
161.7791665105779
 20
51.29929362995536
 30
0.0
 41
0.7071067811865414
 10
161.7791665105779
 20
51.80929362995535
 30
0.0
 41
1.0
 10
161.7791665105779
 20
52.31929362995535
 30
0.0
 41
0.7071067811865377
 10
162.2891665105779
 20
52.31929362995537
 30
0.0
 41
1.0
  0
SPLINE
  5
A4
330
1F
100
AcDbEntity
  8
MAKE2D_VISIBLE_LINES
100
AcDbSpline
210
0.0
220
0.0
230
1.0
 70
    24
 71
     2
 72
     6
 73
     3
 74
     0
 42
0.0000000001
 43
0.0000000001
 40
0.0
 40
0.0
 40
0.0
 40
0.6299999999999955
 40
0.6299999999999955
 40
0.6299999999999955
 10
162.9191665105779
 20
51.29929362995536
 30
0.0
 10
162.6041665105779
 20
51.29929362995536
 30
0.0
 10
162.2891665105779
 20
51.29929362995536
 30
0.0
  0
SPLINE
  5
A5
330
1F
100
AcDbEntity
  8
MAKE2D_VISIBLE_LINES
100
AcDbSpline
210
0.0
220
0.0
230
1.0
 70
    12
 71
     2
 72
     8
 73
     5
 74
     0
 42
0.0000000001
 43
0.0000000001
 40
0.0
 40
0.0
 40
0.0
 40
0.801106126665409
 40
0.801106126665409
 40
1.602212253330805
 40
1.602212253330805
 40
1.602212253330805
 10
162.9191665105779
 20
52.31929362995537
 30
0.0
 41
1.0
 10
163.4291665105779
 20
52.31929362995535
 30
0.0
 41
0.7071067811865759
 10
163.4291665105779
 20
51.80929362995535
 30
0.0
 41
1.0
 10
163.4291665105779
 20
51.29929362995536
 30
0.0
 41
0.7071067811865636
 10
162.9191665105779
 20
51.29929362995534
 30
0.0
 41
1.0
  0
SPLINE
  5
A6
330
1F
100
AcDbEntity
  8
MAKE2D_VISIBLE_LINES
100
AcDbSpline
210
0.0
220
0.0
230
1.0
 70
     8
 71
     3
 72
    14
 73
    10
 74
     0
 42
0.0000000001
 43
0.0000000001
 40
0.0
 40
0.0
 40
0.0
 40
0.0
 40
19.51184436554609
 40
21.72631733972477
 40
23.5069027530932
 40
26.32540446901309
 40
28.95744932162615
 40
31.46200724338727
 40
35.32849049201376
 40
35.32849049201376
 40
35.32849049201376
 40
35.32849049201376
 10
177.1941664489412
 20
58.13168488640774
 30
0.0
 10
170.6799459372548
 20
58.09941079675438
 30
0.0
 10
163.4568369726854
 20
58.18222570262306
 30
0.0
 10
155.6358598748976
 20
58.06781666961835
 30
0.0
 10
153.4055883175216
 20
57.43579327423012
 30
0.0
 10
151.3098941012119
 20
56.2245628940025
 30
0.0
 10
149.7243558151569
 20
53.99690195175475
 30
0.0
 10
148.9069123259635
 20
51.09350608270189
 30
0.0
 10
148.9577112001424
 20
48.94246614988009
 30
0.0
 10
148.9445085345209
 20
47.65932397676509
 30
0.0
  0
SPLINE
  5
A7
330
1F
100
AcDbEntity
  8
MAKE2D_VISIBLE_LINES_-_TAN
100
AcDbSpline
210
0.0
220
0.0
230
1.0
 70
    12
 71
     2
 72
     6
 73
     3
 74
     0
 42
0.0000000001
 43
0.0000000001
 40
0.0
 40
0.0
 40
0.0
 40
0.632004766299463
 40
0.632004766299463
 40
0.632004766299463
 10
147.9122829318213
 20
47.55929362958749
 30
0.0
 41
1.0
 10
148.2282853149703
 20
47.55929483991556
 30
0.0
 41
0.9999999999926317
 10
148.5442876981193
 20
47.55929362408399
 30
0.0
 41
1.0
  0
SPLINE
  5
A8
330
1F
100
AcDbEntity
  8
MAKE2D_VISIBLE_LINES
100
AcDbSpline
210
0.0
220
0.0
230
1.0
 70
    12
 71
     2
 72
     6
 73
     3
 74
     0
 42
0.0000000001
 43
0.0000000001
 40
0.0
 40
0.0
 40
0.0
 40
0.9000089133533077
 40
0.9000089133533077
 40
0.9000089133533077
 10
147.9160575423165
 20
48.45929363250438
 30
0.0
 41
1.0
 10
147.9130112046142
 20
48.00929849203794
 30
0.0
 41
0.9999966830875594
 10
147.9122829318213
 20
47.55929362958027
 30
0.0
 41
1.0
  0
SPLINE
  5
A9
330
1F
100
AcDbEntity
  8
MAKE2D_VISIBLE_LINES_-_TAN
100
AcDbSpline
210
0.0
220
0.0
230
1.0
 70
    12
 71
     2
 72
     6
 73
     3
 74
     0
 42
0.0000000001
 43
0.0000000001
 40
0.0
 40
0.0
 40
0.0
 40
0.6320168439196181
 40
0.6320168439196181
 40
0.6320168439196181
 10
148.5480743860801
 20
48.45929361948082
 30
0.0
 41
1.0
 10
148.2320659641986
 20
48.45930578468057
 30
0.0
 41
0.999999999259805
 10
147.9160575423165
 20
48.45929363250407
 30
0.0
 41
1.0
  0
SPLINE
  5
AA
330
1F
100
AcDbEntity
  8
MAKE2D_VISIBLE_LINES
100
AcDbSpline
210
0.0
220
0.0
230
1.0
 70
    12
 71
     2
 72
     6
 73
     3
 74
     0
 42
0.0000000001
 43
0.0000000001
 40
0.0
 40
0.0
 40
0.0
 40
0.9000090212618866
 40
0.9000090212618866
 40
0.9000090212618866
 10
205.5402579656657
 20
48.45929362995535
 30
0.0
 41
1.0
 10
205.5433167874916
 20
48.00929852153547
 30
0.0
 41
0.9999966874710606
 10
205.5440590766601
 20
47.5592936293403
 30
0.0
 41
1.0
  0
SPLINE
  5
AB
330
1F
100
AcDbEntity
  8
MAKE2D_VISIBLE_LINES_-_TAN
100
AcDbSpline
210
0.0
220
0.0
230
1.0
 70
    24
 71
     2
 72
     6
 73
     3
 74
     0
 42
0.0000000001
 43
0.0000000001
 40
0.0
 40
0.0
 40
0.0
 40
0.3000006759617406
 40
0.3000006759617406
 40
0.3000006759617406
 10
205.8402586416274
 20
48.45929363013009
 30
0.0
 10
205.6902583036466
 20
48.45929363004272
 30
0.0
 10
205.5402579656657
 20
48.45929362995535
 30
0.0
  0
SPLINE
  5
AC
330
1F
100
AcDbEntity
  8
MAKE2D_VISIBLE_LINES
100
AcDbSpline
210
0.0
220
0.0
230
1.0
 70
    12
 71
     2
 72
     6
 73
     3
 74
     0
 42
0.0000000001
 43
0.0000000001
 40
0.0
 40
0.0
 40
0.0
 40
0.900009014570882
 40
0.900009014570882
 40
0.900009014570882
 10
148.8442944069602
 20
47.55929362932601
 30
0.0
 41
1.0
 10
148.845024549084
 20
48.00929855429271
 30
0.0
 41
0.9999966333243491
 10
148.8480900802771
 20
48.45929362995504
 30
0.0
 41
1.0
  0
SPLINE
  5
AD
330
1F
100
AcDbEntity
  8
MAKE2D_VISIBLE_LINES
100
AcDbSpline
210
0.0
220
0.0
230
1.0
 70
    12
 71
     2
 72
     6
 73
     3
 74
     0
 42
0.0000000001
 43
0.0000000001
 40
0.0
 40
0.0
 40
0.0
 40
0.9000092130071979
 40
0.9000092130071979
 40
0.9000092130071979
 10
148.5442877923016
 20
-53.07070635510967
 30
0.0
 41
1.0
 10
148.5448837179871
 20
-53.52071181444827
 30
0.0
 41
0.9999958420057484
 10
148.5480750227697
 20
-53.97070635234372
 30
0.0
 41
1.0
  0
SPLINE
  5
AE
330
1F
100
AcDbEntity
  8
MAKE2D_VISIBLE_LINES
100
AcDbSpline
210
0.0
220
0.0
230
1.0
 70
     8
 71
     3
 72
    17
 73
    13
 74
     0
 42
0.0000000001
 43
0.0000000001
 40
0.0
 40
0.0
 40
0.0
 40
0.0
 40
3.450488828807618
 40
5.997369239889187
 40
8.733478488035034
 40
11.46844628080811
 40
15.23026758669068
 40
18.15956297913827
 40
18.35130531179824
 40
18.95075470274223
 40
20.07741908399253
 40
34.67013147835554
 40
34.67013147835554
 40
34.67013147835554
 40
34.67013147835554
 10
205.5402568270507
 20
-53.97070637004465
 30
0.0
 10
205.5269927368489
 20
-55.11788466403828
 30
0.0
 10
205.5077867160092
 20
-57.13383141271947
 30
0.0
 10
204.5760353107956
 20
-59.9364658415679
 30
0.0
 10
202.8544248757559
 20
-62.03868959608737
 30
0.0
 10
200.0739800062003
 20
-63.52632517510509
 30
0.0
 10
196.9027299814755
 20
-63.76160673284151
 30
0.0
 10
194.6202544794947
 20
-63.73052079465544
 30
0.0
 10
193.3762573182274
 20
-63.74005993964389
 30
0.0
 10
192.7380511886003
 20
-63.73791422397791
 30
0.0
 10
187.2976234137985
 20
-63.74154290345843
 30
0.0
 10
182.0589059288334
 20
-63.74057491911275
 30
0.0
 10
177.1941611433766
 20
-63.74329763289013
 30
0.0
  0
SPLINE
  5
AF
330
1F
100
AcDbEntity
  8
MAKE2D_VISIBLE_LINES
100
AcDbSpline
210
0.0
220
0.0
230
1.0
 70
    24
 71
     2
 72
     6
 73
     3
 74
     0
 42
0.0000000001
 43
0.0000000001
 40
0.0
 40
0.0
 40
0.0
 40
14.89839621442914
 40
14.89839621442914
 40
14.89839621442914
 10
177.1941665106045
 20
59.15929362995534
 30
0.0
 10
184.6433646178191
 20
59.15929362995534
 30
0.0
 10
192.0925627250336
 20
59.15929362995534
 30
0.0
  0
SPLINE
  5
B0
330
1F
100
AcDbEntity
  8
MAKE2D_VISIBLE_LINES_-_TAN
100
AcDbSpline
210
0.0
220
0.0
230
1.0
 70
    24
 71
     2
 72
     6
 73
     3
 74
     0
 42
0.0000000001
 43
0.0000000001
 40
0.0
 40
0.0
 40
0.0
 40
0.1999999999999886
 40
0.1999999999999886
 40
0.1999999999999886
 10
162.2891665105779
 20
51.49929362995535
 30
0.0
 10
162.2891665105779
 20
51.39929362995535
 30
0.0
 10
162.2891665105779
 20
51.29929362995536
 30
0.0
  0
SPLINE
  5
B1
330
1F
100
AcDbEntity
  8
MAKE2D_VISIBLE_LINES_-_TAN
100
AcDbSpline
210
0.0
220
0.0
230
1.0
 70
    24
 71
     2
 72
     6
 73
     3
 74
     0
 42
0.0000000001
 43
0.0000000001
 40
0.0
 40
0.0
 40
0.0
 40
0.2000000000000171
 40
0.2000000000000171
 40
0.2000000000000171
 10
162.2891665105779
 20
52.31929362995537
 30
0.0
 10
162.2891665105779
 20
52.21929362995536
 30
0.0
 10
162.2891665105779
 20
52.11929362995535
 30
0.0
  0
SPLINE
  5
B2
330
1F
100
AcDbEntity
  8
MAKE2D_VISIBLE_LINES
100
AcDbSpline
210
0.0
220
0.0
230
1.0
 70
    28
 71
     2
 72
     6
 73
     3
 74
     0
 42
0.0000000001
 43
0.0000000001
 40
0.0
 40
0.0
 40
0.0
 40
0.0333505569953445
 40
0.0333505569953445
 40
0.0333505569953445
 10
207.1091655658136
 20
41.86594307296001
 30
0.0
 41
1.0
 10
207.1091655658136
 20
41.88261835145768
 30
0.0
 41
1.0
 10
207.1091655658136
 20
41.89929362995535
 30
0.0
 41
1.0
  0
SPLINE
  5
B3
330
1F
100
AcDbEntity
  8
MAKE2D_VISIBLE_LINES
100
AcDbSpline
210
0.0
220
0.0
230
1.0
 70
    12
 71
     2
 72
     6
 73
     3
 74
     0
 42
0.0000000001
 43
0.0000000001
 40
0.0333505569953445
 40
0.0333505569953445
 40
0.0333505569953445
 40
0.7794788122229219
 40
0.7794788122229219
 40
0.7794788122229219
 10
207.1091655658136
 20
41.89929362995535
 30
0.0
 41
1.0
 10
207.1091665105781
 20
41.89929362995536
 30
0.0
 41
0.7071067811865476
 10
207.109166510578
 20
41.42429362995536
 30
0.0
 41
1.0
  0
SPLINE
  5
B4
330
1F
100
AcDbEntity
  8
MAKE2D_VISIBLE_LINES_-_TAN
100
AcDbSpline
210
0.0
220
0.0
230
1.0
 70
    12
 71
     2
 72
     6
 73
     3
 74
     0
 42
0.0000000001
 43
0.0000000001
 40
0.0
 40
0.0
 40
0.0
 40
3.861827927701254
 40
3.861827927701254
 40
3.861827927701254
 10
171.5997910325208
 20
29.68146801864695
 30
0.0
 41
1.0
 10
172.6705762100128
 20
31.5151387475179
 30
0.0
 41
0.8693962397718279
 10
174.7939212243623
 20
31.53344689575864
 30
0.0
 41
1.0
  0
SPLINE
  5
B5
330
1F
100
AcDbEntity
  8
MAKE2D_VISIBLE_LINES_-_TAN
100
AcDbSpline
210
0.0
220
0.0
230
1.0
 70
     8
 71
     3
 72
    14
 73
    10
 74
     0
 42
0.0000000001
 43
0.0000000001
 40
0.0
 40
0.0
 40
0.0
 40
0.0
 40
0.3534249570128244
 40
0.7422064965048512
 40
2.173479532993098
 40
2.624094935822976
 40
3.030471468737389
 40
4.66508163845673
 40
5.654588630782469
 40
5.654588630782469
 40
5.654588630782469
 40
5.654588630782469
 10
174.7939212243623
 20
31.53344689575864
 30
0.0
 10
174.9140157168154
 20
31.53404083449108
 30
0.0
 10
175.1548514236399
 20
31.51169314562118
 30
0.0
 10
175.8757619103835
 20
31.35325686210076
 30
0.0
 10
176.538900517524
 20
31.00281136659915
 30
0.0
 10
177.2885457325469
 20
30.78603141705669
 30
0.0
 10
178.1035655981112
 20
30.99510955575403
 30
0.0
 10
179.0165131364992
 20
31.43268810264077
 30
0.0
 10
179.910158336306
 20
31.50703097995856
 30
0.0
 10
180.2354092821334
 20
31.47079221594275
 30
0.0
  0
SPLINE
  5
B6
330
1F
100
AcDbEntity
  8
MAKE2D_VISIBLE_LINES_-_TAN
100
AcDbSpline
210
0.0
220
0.0
230
1.0
 70
     8
 71
     3
 72
    11
 73
     7
 74
     0
 42
0.0000000001
 43
0.0000000001
 40
0.0
 40
0.0
 40
0.0
 40
0.0
 40
1.066085044333646
 40
2.182914789778498
 40
4.41658269510013
 40
8.122458837097794
 40
8.122458837097794
 40
8.122458837097794
 40
8.122458837097794
 10
172.4240575643137
 20
21.97349015386096
 30
0.0
 10
172.2275301085512
 20
22.27103478239877
 30
0.0
 10
171.8679784447224
 20
22.90104229253575
 30
0.0
 10
171.3002005108632
 20
24.26944378155451
 30
0.0
 10
170.7433013500784
 20
26.55239982687885
 30
0.0
 10
170.9582359150645
 20
28.60876604729296
 30
0.0
 10
171.5997910325208
 20
29.68146801864695
 30
0.0
  0
SPLINE
  5
B7
330
1F
100
AcDbEntity
  8
MAKE2D_VISIBLE_LINES_-_TAN
100
AcDbSpline
210
0.0
220
0.0
230
1.0
 70
     8
 71
     3
 72
    11
 73
     7
 74
     0
 42
0.0000000001
 43
0.0000000001
 40
0.0
 40
0.0
 40
0.0
 40
0.0
 40
0.2914585347528314
 40
0.5828566139501536
 40
1.246202907142615
 40
3.215933731739984
 40
3.215933731739984
 40
3.215933731739984
 40
3.215933731739984
 10
174.7939212243624
 20
19.99761503650454
 30
0.0
 10
174.6963513679405
 20
19.99522029187671
 30
0.0
 10
174.5030783019102
 20
20.013868123829
 30
0.0
 10
174.1007042628484
 20
20.13044938267282
 30
0.0
 10
173.279633172942
 20
20.68132515742862
 30
0.0
 10
172.7892044429431
 20
21.43332775468194
 30
0.0
 10
172.4240575643137
 20
21.97349015386096
 30
0.0
  0
SPLINE
  5
B8
330
1F
100
AcDbEntity
  8
MAKE2D_VISIBLE_LINES_-_TAN
100
AcDbSpline
210
0.0
220
0.0
230
1.0
 70
     8
 71
     3
 72
    13
 73
     9
 74
     0
 42
0.0000000001
 43
0.0000000001
 40
0.0
 40
0.0
 40
0.0
 40
0.0
 40
0.6519544662794413
 40
1.955824923406204
 40
2.624067130252901
 40
3.341198579431969
 40
4.612463749122814
 40
5.215549538482191
 40
5.215549538482191
 40
5.215549538482191
 40
5.215549538482191
 10
179.8165959381909
 20
19.91922876804254
 30
0.0
 10
179.5977932769192
 20
19.91667183711384
 30
0.0
 10
178.9510261451712
 20
20.0245535447053
 30
0.0
 10
178.1844877454794
 20
20.50099984166718
 30
0.0
 10
177.2837667951665
 20
20.59578868291534
 30
0.0
 10
176.3928381953869
 20
20.52585502280419
 30
0.0
 10
175.6129451304523
 20
20.10556324909872
 30
0.0
 10
174.996730678259
 20
19.99839639750353
 30
0.0
 10
174.7939212243624
 20
19.99761503650454
 30
0.0
  0
SPLINE
  5
B9
330
1F
100
AcDbEntity
  8
MAKE2D_VISIBLE_LINES_-_TAN
100
AcDbSpline
210
0.0
220
0.0
230
1.0
 70
    12
 71
     2
 72
     6
 73
     3
 74
     0
 42
0.0000000001
 43
0.0000000001
 40
0.0
 40
0.0
 40
0.0
 40
0.6319778571722335
 40
0.6319778571722335
 40
0.6319778571722335
 10
205.8440739848931
 20
47.5592936065518
 30
0.0
 41
1.0
 10
206.1600629134784
 20
47.55929486676517
 30
0.0
 41
0.9999999999923397
 10
206.4760518420637
 20
47.55929365330773
 30
0.0
 41
1.0
  0
SPLINE
  5
BA
330
1F
100
AcDbEntity
  8
MAKE2D_VISIBLE_LINES_-_TAN
100
AcDbSpline
210
0.0
220
0.0
230
1.0
 70
    12
 71
     2
 72
     6
 73
     3
 74
     0
 42
0.0000000001
 43
0.0000000001
 40
0.0
 40
0.0
 40
0.0
 40
0.6320162800495758
 40
0.6320162800495758
 40
0.6320162800495758
 10
206.472274921512
 20
48.45929363236836
 30
0.0
 41
1.0
 10
206.1562667815697
 20
48.45930613961562
 30
0.0
 41
0.9999999992166161
 10
205.8402586416274
 20
48.45929363012941
 30
0.0
 41
1.0
  0
SPLINE
  5
BB
330
1F
100
AcDbEntity
  8
MAKE2D_VISIBLE_LINES
100
AcDbSpline
210
0.0
220
0.0
230
1.0
 70
    12
 71
     2
 72
     6
 73
     3
 74
     0
 42
0.0000000001
 43
0.0000000001
 40
0.0
 40
0.0
 40
0.0
 40
0.900008810262265
 40
0.900008810262265
 40
0.900008810262265
 10
206.4760618641566
 20
47.55929365327655
 30
0.0
 41
1.0
 10
206.4753173084709
 20
48.00929842024609
 30
0.0
 41
0.9999967407403719
 10
206.4722749223235
 20
48.45929351860275
 30
0.0
 41
1.0
  0
SPLINE
  5
BC
330
1F
100
AcDbEntity
  8
MAKE2D_VISIBLE_LINES_-_TAN
100
AcDbSpline
210
0.0
220
0.0
230
1.0
 70
    12
 71
     2
 72
     6
 73
     3
 74
     0
 42
0.0000000001
 43
0.0000000001
 40
0.0
 40
0.0
 40
0.0
 40
0.6320161253602444
 40
0.6320161253602444
 40
0.6320161253602444
 10
206.4722749723912
 20
-53.97070637245589
 30
0.0
 41
1.0
 10
206.1562669097936
 20
-53.97071888044518
 30
0.0
 41
0.9999999992166154
 10
205.840258847196
 20
-53.97070637169618
 30
0.0
 41
1.0
  0
SPLINE
  5
BD
330
1F
100
AcDbEntity
  8
MAKE2D_VISIBLE_LINES
100
AcDbSpline
210
0.0
220
0.0
230
1.0
 70
     8
 71
     3
 72
    14
 73
    10
 74
     0
 42
0.0000000001
 43
0.0000000001
 40
0.0
 40
0.0
 40
0.0
 40
0.0
 40
3.053371536583702
 40
5.392085769585163
 40
9.928543086529588
 40
14.19705759324621
 40
16.37317751844672
 40
17.74517375017098
 40
21.2389729001978
 40
21.2389729001978
 40
21.2389729001978
 40
21.2389729001978
 10
206.4722749723912
 20
-53.97070637245568
 30
0.0
 10
206.4655362208358
 20
-54.98658805634233
 30
0.0
 10
206.4320987078931
 20
-56.79286010599443
 30
0.0
 10
205.6752434655167
 20
-60.03376788396114
 30
0.0
 10
203.3582964288613
 20
-63.14447859949718
 30
0.0
 10
199.8268600332199
 20
-64.49280368651165
 30
0.0
 10
197.2272645915269
 20
-64.64563786769071
 30
0.0
 10
194.8782272511429
 20
-64.67778592994007
 30
0.0
 10
193.2576859638839
 20
-64.66678591728311
 30
0.0
 10
192.0925627250336
 20
-64.67070637004464
 30
0.0
  0
SPLINE
  5
BE
330
1F
100
AcDbEntity
  8
MAKE2D_VISIBLE_LINES
100
AcDbSpline
210
0.0
220
0.0
230
1.0
 70
    12
 71
     2
 72
    64
 73
    61
 74
     0
 42
0.0000000001
 43
0.0000000001
 40
0.0
 40
0.0
 40
0.0
 40
0.1684388741247445
 40
0.1684388741247445
 40
0.7050504596345559
 40
0.7050504596345559
 40
1.26928856904732
 40
1.26928856904732
 40
2.370744022396451
 40
2.370744022396451
 40
3.459099299227002
 40
3.459099299227002
 40
4.549618212834552
 40
4.549618212834552
 40
5.643958906885369
 40
5.643958906885369
 40
6.725861572133454
 40
6.725861572133454
 40
7.804077841553177
 40
7.804077841553177
 40
8.887653602380787
 40
8.887653602380787
 40
9.96230634210992
 40
9.96230634210992
 40
11.04434547406312
 40
11.04434547406312
 40
12.12370331657207
 40
12.12370331657207
 40
13.22746879230415
 40
13.22746879230415
 40
13.77742558838468
 40
13.77742558838468
 40
14.32851249172982
 40
14.32851249172982
 40
14.61288105800481
 40
14.61288105800481
 40
14.86862392710496
 40
14.86862392710496
 40
15.45213664141239
 40
15.45213664141239
 40
16.01849946728846
 40
16.01849946728846
 40
16.54796141892135
 40
16.54796141892135
 40
17.15271766766536
 40
17.15271766766536
 40
17.78885823313711
 40
17.78885823313711
 40
18.2908954573318
 40
18.2908954573318
 40
18.86557529472017
 40
18.86557529472017
 40
19.40931967166
 40
19.40931967166
 40
19.97462024441806
 40
19.97462024441806
 40
21.10527605948754
 40
21.10527605948754
 40
25.62799281820093
 40
25.62799281820093
 40
34.67342250271008
 40
34.67342250271008
 40
34.67342250271008
 10
148.8480900802771
 20
48.45929362995504
 30
0.0
 41
1.0
 10
148.8486986096829
 20
48.54351089145523
 30
0.0
 41
0.9999995914732634
 10
148.8494593876834
 20
48.62772691522427
 30
0.0
 41
1.0
 10
148.8517385331224
 20
48.89602495741284
 30
0.0
 41
0.9999892116831343
 10
148.8565100705691
 20
49.16429024845239
 30
0.0
 41
1.0
 10
148.8615831780446
 20
49.44637088625301
 30
0.0
 41
0.9999617286871486
 10
148.8715910432122
 20
49.72831957888387
 30
0.0
 41
1.0
 10
148.889941476718
 20
50.27889644912082
 30
0.0
 41
0.9995783742879468
 10
148.9402202915744
 20
50.82747977845777
 30
0.0
 41
1.0
 10
148.9902126569752
 20
51.3697470831146
 30
0.0
 41
0.9989282373632195
 10
149.0901355839262
 20
51.90506799151227
 30
0.0
 41
1.0
 10
149.1909497090816
 20
52.44160848303055
 30
0.0
 41
0.9981595791412367
 10
149.3559763905794
 20
52.96199812672397
 30
0.0
 41
1.0
 10
149.521894803811
 20
53.48436546277676
 30
0.0
 41
0.9975001820507781
 10
149.759796705016
 20
53.97812576801327
 30
0.0
 41
1.0
 10
149.9953420128851
 20
54.46622479365456
 30
0.0
 41
0.9972065210680829
 10
150.3009712249772
 20
54.91378823676298
 30
0.0
 41
1.0
 10
150.6056273604047
 20
55.35982299328966
 30
0.0
 41
0.997108366236757
 10
150.9743596104312
 20
55.75453667771647
 30
0.0
 41
1.0
 10
151.3448329480519
 20
56.15132750093565
 30
0.0
 41
0.9970491569538048
 10
151.7716800189526
 20
56.48673028765965
 30
0.0
 41
1.0
 10
152.1949815857002
 20
56.81933246462577
 30
0.0
 41
0.9971820182346827
 10
152.6632815518129
 20
57.08485754116747
 30
0.0
 41
1.0
 10
153.1348148472245
 20
57.35205623350064
 30
0.0
 41
0.9973529767871038
 10
153.640116376526
 20
57.54803876933407
 30
0.0
 41
1.0
 10
154.1441665109264
 20
57.74301011527321
 30
0.0
 41
0.9978762234961246
 10
154.6692856254271
 20
57.87080009654086
 30
0.0
 41
1.0
 10
155.2061016421486
 20
58.00119306855764
 30
0.0
 41
0.9985273075385892
 10
155.7538848987662
 20
58.07265821201686
 30
0.0
 41
1.0
 10
156.0265477591897
 20
58.10857958777751
 30
0.0
 41
0.9997792554317061
 10
156.300479008532
 20
58.13301422148815
 30
0.0
 41
1.0
 10
156.5749569962418
 20
58.15749014825915
 30
0.0
 41
0.9998711795543842
 10
156.8500791688269
 20
58.17314348274586
 30
0.0
 41
1.0
 10
156.99203010828
 20
58.18132412524584
 30
0.0
 41
0.9999769345331054
 10
157.1340790734714
 20
58.18757581392786
 30
0.0
 41
1.0
 10
157.2618298833136
 20
58.19315655603086
 30
0.0
 41
0.99998576618495
 10
157.3896329707944
 20
58.19737377408576
 30
0.0
 41
1.0
 10
157.6812395775238
 20
58.20687450557082
 30
0.0
 41
0.9999744047501936
 10
157.9729522760961
 20
58.21220165101604
 30
0.0
 41
1.0
 10
158.2560861973245
 20
58.21751283572546
 30
0.0
 41
0.9999877165114642
 10
158.5392588562058
 20
58.22001709116566
 30
0.0
 41
1.0
 10
158.8039812551891
 20
58.22220483788756
 30
0.0
 41
0.9999973759314768
 10
159.0687108992805
 20
58.22317967044738
 30
0.0
 41
1.0
 10
159.3710865530176
 20
58.22442058628996
 30
0.0
 41
0.9999996247535694
 10
159.6734639029276
 20
58.22513759846451
 30
0.0
 41
1.0
 10
159.991533424627
 20
58.22584211705233
 30
0.0
 41
0.999999909402438
 10
160.3096034308462
 20
58.22627584997805
 30
0.0
 41
1.0
 10
160.5606217421552
 20
58.22667033876451
 30
0.0
 41
0.9999999450737117
 10
160.8116402598131
 20
58.22689843237937
 30
0.0
 41
1.0
 10
161.0989801700991
 20
58.2269925139307
 30
0.0
 41
0.9999999634891222
 10
161.3863200892674
 20
58.22693130240278
 30
0.0
 41
1.0
 10
161.6581922832987
 20
58.22694884878577
 30
0.0
 41
0.9999999661920314
 10
161.9300644314391
 20
58.22710778536523
 30
0.0
 41
1.0
 10
162.2127146822449
 20
58.22725035792744
 30
0.0
 41
0.9999999979593093
 10
162.4953649489602
 20
58.22735681587342
 30
0.0
 41
1.0
 10
163.0606928252035
 20
58.22754515736106
 30
0.0
 41
0.9999999997827137
 10
163.6260207088078
 20
58.22770992874169
 30
0.0
 41
1.0
 10
165.8873789834134
 20
58.22839824452271
 30
0.0
 41
0.9999999999971697
 10
168.1487372547182
 20
58.22909732064176
 30
0.0
 41
1.0
 10
172.6714518808828
 20
58.23049820604972
 30
0.0
 41
1.0
 10
177.1941665083729
 20
58.23189199112844
 30
0.0
 41
1.0
  0
SPLINE
  5
BF
330
1F
100
AcDbEntity
  8
MAKE2D_VISIBLE_LINES_-_TAN
100
AcDbSpline
210
0.0
220
0.0
230
1.0
 70
    12
 71
     2
 72
     6
 73
     3
 74
     0
 42
0.0000000001
 43
0.0000000001
 40
0.0
 40
0.0
 40
0.0
 40
2.424815580608858
 40
2.424815580608858
 40
2.424815580608858
 10
183.2837004709279
 20
23.90387830016736
 30
0.0
 41
1.0
 10
182.8883936261622
 20
22.74903054037114
 30
0.0
 41
0.9899248867834664
 10
182.1851946495369
 20
21.75130710720036
 30
0.0
 41
1.0
  0
SPLINE
  5
C0
330
1F
100
AcDbEntity
  8
MAKE2D_VISIBLE_LINES_-_TAN
100
AcDbSpline
210
0.0
220
0.0
230
1.0
 70
    12
 71
     2
 72
     6
 73
     3
 74
     0
 42
0.0000000001
 43
0.0000000001
 40
0.0
 40
0.0
 40
0.0
 40
3.488781651485258
 40
3.488781651485258
 40
3.488781651485258
 10
182.9952508310665
 20
29.90219928187916
 30
0.0
 41
1.0
 10
181.3325810590856
 20
28.94836010128267
 30
0.0
 41
0.870356671739258
 10
181.293834980863
 20
27.03191059907225
 30
0.0
 41
1.0
  0
SPLINE
  5
C1
330
1F
100
AcDbEntity
  8
MAKE2D_VISIBLE_LINES_-_TAN
100
AcDbSpline
210
0.0
220
0.0
230
1.0
 70
    12
 71
     2
 72
     6
 73
     3
 74
     0
 42
0.0000000001
 43
0.0000000001
 40
0.0
 40
0.0
 40
0.0
 40
3.931799862758984
 40
3.931799862758984
 40
3.931799862758984
 10
181.293834980863
 20
27.03191059907225
 30
0.0
 41
1.0
 10
181.2406102412608
 20
24.80111987457532
 30
0.0
 41
0.8307044774056142
 10
183.2837004709279
 20
23.90387830016735
 30
0.0
 41
1.0
  0
SPLINE
  5
C2
330
1F
100
AcDbEntity
  8
MAKE2D_VISIBLE_LINES_-_TAN
100
AcDbSpline
210
0.0
220
0.0
230
1.0
 70
    12
 71
     2
 72
     6
 73
     3
 74
     0
 42
0.0000000001
 43
0.0000000001
 40
0.0
 40
0.0
 40
0.0
 40
3.291923793014487
 40
3.291923793014487
 40
3.291923793014487
 10
180.2354092821334
 20
31.47079221594275
 30
0.0
 41
1.0
 10
182.0090115455825
 20
31.3791538036207
 30
0.0
 41
0.8937272242701472
 10
182.9952508310665
 20
29.90219928187916
 30
0.0
 41
1.0
  0
SPLINE
  5
C3
330
1F
100
AcDbEntity
  8
MAKE2D_VISIBLE_LINES
100
AcDbSpline
210
0.0
220
0.0
230
1.0
 70
     8
 71
     3
 72
    15
 73
    11
 74
     0
 42
0.0000000001
 43
0.0000000001
 40
0.0
 40
0.0
 40
0.0
 40
0.0
 40
3.4861848440359
 40
6.130678551995176
 40
8.756243631173287
 40
11.58111486514532
 40
15.52611809916588
 40
16.70573771861063
 40
20.18420493385188
 40
35.1424628238581
 40
35.1424628238581
 40
35.1424628238581
 40
35.1424628238581
 10
148.5480750227697
 20
-53.97070635234372
 30
0.0
 10
148.5609680447504
 20
-55.12982035725383
 30
0.0
 10
148.5817159962371
 20
-57.19028463277143
 30
0.0
 10
149.5133665998422
 20
-60.00073221244347
 30
0.0
 10
151.2100502078674
 20
-62.14719345958576
 30
0.0
 10
153.9830225682447
 20
-63.75739011363215
 30
0.0
 10
156.6615184009038
 20
-64.0195243570443
 30
0.0
 10
159.5213561078074
 20
-64.03777630140844
 30
0.0
 10
166.0657674406485
 20
-64.05008775117545
 30
0.0
 10
172.2063421636298
 20
-64.04214658729032
 30
0.0
 10
177.1941665105667
 20
-64.04329764548183
 30
0.0
  0
SPLINE
  5
C4
330
1F
100
AcDbEntity
  8
MAKE2D_VISIBLE_LINES
100
AcDbSpline
210
0.0
220
0.0
230
1.0
 70
     8
 71
     3
 72
    15
 73
    11
 74
     0
 42
0.0000000001
 43
0.0000000001
 40
0.0
 40
0.0
 40
0.0
 40
0.0
 40
19.4767008746926
 40
20.27474614254522
 40
21.57125476916319
 40
23.28137603446784
 40
26.00150274434295
 40
28.52838671354055
 40
31.18763802040116
 40
34.67048796730355
 40
34.67048796730355
 40
34.67048796730355
 40
34.67048796730355
 10
177.1941611433766
 20
-63.74329763289013
 30
0.0
 10
170.7020588362719
 20
-63.72695890657662
 30
0.0
 10
163.9434600259808
 20
-63.76424814076039
 30
0.0
 10
156.75343704469
 20
-63.7153169308753
 30
0.0
 10
155.4893903966787
 20
-63.56214961864925
 30
0.0
 10
153.6184057951625
 20
-63.17110693691493
 30
0.0
 10
151.5468334524942
 20
-62.02703501350364
 30
0.0
 10
149.8345214946385
 20
-59.96896816118776
 30
0.0
 10
148.8802296238013
 20
-57.1946304022803
 30
0.0
 10
148.8631652622936
 20
-55.1281421190666
 30
0.0
 10
148.8480931316476
 20
-53.97070637004472
 30
0.0
  0
SPLINE
  5
C5
330
1F
100
AcDbEntity
  8
MAKE2D_VISIBLE_LINES_-_TAN
100
AcDbSpline
210
0.0
220
0.0
230
1.0
 70
    24
 71
     2
 72
     6
 73
     3
 74
     0
 42
0.0000000001
 43
0.0000000001
 40
0.0
 40
0.0
 40
0.0
 40
0.3000181088778936
 40
0.3000181088778936
 40
0.3000181088778936
 10
148.8480931316476
 20
-53.97070637004474
 30
0.0
 10
148.6980840772086
 20
-53.97070636119423
 30
0.0
 10
148.5480750227697
 20
-53.97070635234372
 30
0.0
  0
SPLINE
  5
C6
330
1F
100
AcDbEntity
  8
MAKE2D_VISIBLE_LINES_-_TAN
100
AcDbSpline
210
0.0
220
0.0
230
1.0
 70
    12
 71
     2
 72
     6
 73
     3
 74
     0
 42
0.0000000001
 43
0.0000000001
 40
0.0
 40
0.0
 40
0.0
 40
2.598856375279379
 40
2.598856375279379
 40
2.598856375279379
 10
179.4771868334867
 20
32.73858924915446
 30
0.0
 41
1.0
 10
178.5924149113668
 20
31.65498904267979
 30
0.0
 41
0.8966439869706513
 10
177.1941665105771
 20
31.69871742400056
 30
0.0
 41
1.0
  0
SPLINE
  5
C7
330
1F
100
AcDbEntity
  8
MAKE2D_VISIBLE_LINES
100
AcDbSpline
210
0.0
220
0.0
230
1.0
 70
    24
 71
     2
 72
     6
 73
     3
 74
     0
 42
0.0000000001
 43
0.0000000001
 40
0.0
 40
0.0
 40
0.0
 40
4.249982086739323
 40
4.249982086739323
 40
4.249982086739323
 10
207.109166510578
 20
41.42429362995536
 30
0.0
 10
207.109166510578
 20
39.2993025865857
 30
0.0
 10
207.109166510578
 20
37.17431154321604
 30
0.0
  0
SPLINE
  5
C8
330
1F
100
AcDbEntity
  8
MAKE2D_VISIBLE_LINES_-_TAN
100
AcDbSpline
210
0.0
220
0.0
230
1.0
 70
    24
 71
     2
 72
     6
 73
     3
 74
     0
 42
0.0000000001
 43
0.0000000001
 40
0.0
 40
0.0
 40
0.0
 40
0.1500000000000057
 40
0.1500000000000057
 40
0.1500000000000057
 10
206.959166510578
 20
37.17431154321604
 30
0.0
 10
207.034166510578
 20
37.17431154321604
 30
0.0
 10
207.109166510578
 20
37.17431154321604
 30
0.0
  0
SPLINE
  5
C9
330
1F
100
AcDbEntity
  8
MAKE2D_VISIBLE_LINES
100
AcDbSpline
210
0.0
220
0.0
230
1.0
 70
    24
 71
     2
 72
     6
 73
     3
 74
     0
 42
0.0000000001
 43
0.0000000001
 40
0.0
 40
0.0
 40
0.0
 40
0.4416494430046498
 40
0.4416494430046498
 40
0.4416494430046498
 10
207.109166510578
 20
37.17431154321604
 30
0.0
 10
207.109166510578
 20
36.95348682171371
 30
0.0
 10
207.109166510578
 20
36.73266210021139
 30
0.0
  0
SPLINE
  5
CA
330
1F
100
AcDbEntity
  8
MAKE2D_VISIBLE_LINES
100
AcDbSpline
210
0.0
220
0.0
230
1.0
 70
    12
 71
     2
 72
     8
 73
     5
 74
     0
 42
0.0000000001
 43
0.0000000001
 40
0.0
 40
0.0
 40
0.0
 40
0.4869468613064217
 40
0.4869468613064217
 40
0.9738937226128371
 40
0.9738937226128371
 40
0.9738937226128371
 10
162.2891665105779
 20
51.49929362995535
 30
0.0
 41
1.0
 10
161.9791665105779
 20
51.49929362995535
 30
0.0
 41
0.7071067811865982
 10
161.9791665105779
 20
51.80929362995535
 30
0.0
 41
1.0
 10
161.9791665105779
 20
52.11929362995534
 30
0.0
 41
0.70710678118658
 10
162.2891665105779
 20
52.11929362995535
 30
0.0
 41
1.0
  0
SPLINE
  5
CB
330
1F
100
AcDbEntity
  8
MAKE2D_VISIBLE_LINES
100
AcDbSpline
210
0.0
220
0.0
230
1.0
 70
    24
 71
     2
 72
     6
 73
     3
 74
     0
 42
0.0000000001
 43
0.0000000001
 40
0.0
 40
0.0
 40
0.0
 40
0.6299999999999955
 40
0.6299999999999955
 40
0.6299999999999955
 10
162.2891665105779
 20
52.11929362995535
 30
0.0
 10
162.6041665105779
 20
52.11929362995535
 30
0.0
 10
162.9191665105779
 20
52.11929362995535
 30
0.0
  0
SPLINE
  5
CC
330
1F
100
AcDbEntity
  8
MAKE2D_VISIBLE_LINES_-_TAN
100
AcDbSpline
210
0.0
220
0.0
230
1.0
 70
    24
 71
     2
 72
     6
 73
     3
 74
     0
 42
0.0000000001
 43
0.0000000001
 40
0.0
 40
0.0
 40
0.0
 40
0.1500000000000057
 40
0.1500000000000057
 40
0.1500000000000057
 10
207.109166510578
 20
41.42429362995536
 30
0.0
 10
207.034166510578
 20
41.42429362995536
 30
0.0
 10
206.959166510578
 20
41.42429362995536
 30
0.0
  0
SPLINE
  5
CD
330
1F
100
AcDbEntity
  8
MAKE2D_VISIBLE_LINES
100
AcDbSpline
210
0.0
220
0.0
230
1.0
 70
    12
 71
     2
 72
     6
 73
     3
 74
     0
 42
0.0000000001
 43
0.0000000001
 40
0.0
 40
0.0
 40
0.0
 40
2.224660742027102
 40
2.224660742027102
 40
2.224660742027102
 10
168.0691664854358
 20
51.80943966770195
 30
0.0
 41
1.0
 10
168.0210594625043
 20
50.42842942311309
 30
0.0
 41
0.7315489709697088
 10
166.6400854278994
 20
50.37929392614997
 30
0.0
 41
1.0
  0
SPLINE
  5
CE
330
1F
100
AcDbEntity
  8
MAKE2D_VISIBLE_LINES
100
AcDbSpline
210
0.0
220
0.0
230
1.0
 70
    12
 71
     2
 72
     6
 73
     3
 74
     0
 42
0.0000000001
 43
0.0000000001
 40
2.224660742027102
 40
2.224660742027102
 40
2.224660742027102
 40
4.451088946072524
 40
4.451088946072524
 40
4.451088946072524
 10
166.6400854278994
 20
50.37929392614997
 30
0.0
 41
1.0
 10
165.2570136998697
 20
50.42610308874644
 30
0.0
 41
0.730876198622087
 10
165.2091665302489
 20
51.80913929613125
 30
0.0
 41
1.0
  0
SPLINE
  5
CF
330
1F
100
AcDbEntity
  8
MAKE2D_VISIBLE_LINES
100
AcDbSpline
210
0.0
220
0.0
230
1.0
 70
    12
 71
     2
 72
     8
 73
     5
 74
     0
 42
0.0000000001
 43
0.0000000001
 40
0.0
 40
0.0
 40
0.0
 40
2.701769682087215
 40
2.701769682087215
 40
5.403539364174422
 40
5.403539364174422
 40
5.403539364174422
 10
166.6391665105779
 20
53.52929362995535
 30
0.0
 41
1.0
 10
164.919166510578
 20
53.52929362995533
 30
0.0
 41
0.7071067811865578
 10
164.9191665105779
 20
51.80929362995535
 30
0.0
 41
1.0
 10
164.9191665105779
 20
50.0892936299554
 30
0.0
 41
0.7071067811865585
 10
166.6391665105779
 20
50.08929362995535
 30
0.0
 41
1.0
  0
SPLINE
  5
D0
330
1F
100
AcDbEntity
  8
MAKE2D_VISIBLE_LINES
100
AcDbSpline
210
0.0
220
0.0
230
1.0
 70
    12
 71
     2
 72
     8
 73
     5
 74
     0
 42
0.0000000001
 43
0.0000000001
 40
0.0
 40
0.0
 40
0.0
 40
2.701769682087236
 40
2.701769682087236
 40
5.403539364174474
 40
5.403539364174474
 40
5.403539364174474
 10
166.6391665105779
 20
50.08929362995535
 30
0.0
 41
1.0
 10
168.3591665105779
 20
50.08929362995535
 30
0.0
 41
0.7071067811865489
 10
168.3591665105779
 20
51.80929362995535
 30
0.0
 41
1.0
 10
168.3591665105779
 20
53.52929362995535
 30
0.0
 41
0.707106781186538
 10
166.6391665105779
 20
53.52929362995535
 30
0.0
 41
1.0
  0
SPLINE
  5
D1
330
1F
100
AcDbEntity
  8
MAKE2D_VISIBLE_LINES
100
AcDbSpline
210
0.0
220
0.0
230
1.0
 70
    12
 71
     2
 72
     8
 73
     5
 74
     0
 42
0.0000000001
 43
0.0000000001
 40
0.0
 40
0.0
 40
0.0
 40
0.4869468613064226
 40
0.4869468613064226
 40
0.9738937226128146
 40
0.9738937226128146
 40
0.9738937226128146
 10
162.9191665105779
 20
52.11929362995535
 30
0.0
 41
1.0
 10
163.2291665105779
 20
52.11929362995537
 30
0.0
 41
0.7071067811865718
 10
163.2291665105779
 20
51.80929362995535
 30
0.0
 41
1.0
 10
163.2291665105779
 20
51.49929362995538
 30
0.0
 41
0.7071067811865779
 10
162.9191665105779
 20
51.49929362995537
 30
0.0
 41
1.0
  0
SPLINE
  5
D2
330
1F
100
AcDbEntity
  8
MAKE2D_VISIBLE_LINES
100
AcDbSpline
210
0.0
220
0.0
230
1.0
 70
    24
 71
     2
 72
     6
 73
     3
 74
     0
 42
0.0000000001
 43
0.0000000001
 40
0.0
 40
0.0
 40
0.0
 40
0.6299999999999955
 40
0.6299999999999955
 40
0.6299999999999955
 10
162.9191665105779
 20
51.49929362995537
 30
0.0
 10
162.6041665105779
 20
51.49929362995536
 30
0.0
 10
162.2891665105779
 20
51.49929362995535
 30
0.0
  0
SPLINE
  5
D3
330
1F
100
AcDbEntity
  8
MAKE2D_VISIBLE_LINES
100
AcDbSpline
210
0.0
220
0.0
230
1.0
 70
    24
 71
     2
 72
     6
 73
     3
 74
     0
 42
0.0000000001
 43
0.0000000001
 40
0.0
 40
0.0
 40
0.0
 40
0.1811025540825836
 40
0.1811025540825836
 40
0.1811025540825836
 10
207.109166510578
 20
36.69931154321604
 30
0.0
 10
207.045137088537
 20
36.63528212117505
 30
0.0
 10
206.981107666496
 20
36.57125269913405
 30
0.0
  0
SPLINE
  5
D4
330
1F
100
AcDbEntity
  8
MAKE2D_VISIBLE_LINES
100
AcDbSpline
210
0.0
220
0.0
230
1.0
 70
    12
 71
     2
 72
    62
 73
    59
 74
     0
 42
0.0000000001
 43
0.0000000001
 40
0.0
 40
0.0
 40
0.0
 40
10.69334122919504
 40
10.69334122919504
 40
14.03580433736514
 40
14.03580433736514
 40
15.74692997403794
 40
15.74692997403794
 40
15.88265251477935
 40
15.88265251477935
 40
16.06901902553998
 40
16.06901902553998
 40
16.35525483232754
 40
16.35525483232754
 40
16.80838715184492
 40
16.80838715184492
 40
17.47864378403266
 40
17.47864378403266
 40
18.07837514553009
 40
18.07837514553009
 40
18.59425391024387
 40
18.59425391024387
 40
19.15856459914124
 40
19.15856459914124
 40
19.73865395184297
 40
19.73865395184297
 40
19.99236403667392
 40
19.99236403667392
 40
20.29499734384154
 40
20.29499734384154
 40
21.37563670077984
 40
21.37563670077984
 40
22.49217404361443
 40
22.49217404361443
 40
23.58391606966914
 40
23.58391606966914
 40
24.66827459288838
 40
24.66827459288838
 40
25.75611242576665
 40
25.75611242576665
 40
26.84077593985888
 40
26.84077593985888
 40
27.92592519450547
 40
27.92592519450547
 40
29.00545033430222
 40
29.00545033430222
 40
30.08812862759017
 40
30.08812862759017
 40
31.18767600816934
 40
31.18767600816934
 40
32.29049607651929
 40
32.29049607651929
 40
33.40656241219983
 40
33.40656241219983
 40
33.96948389529348
 40
33.96948389529348
 40
34.54202941564755
 40
34.54202941564755
 40
34.67339114791923
 40
34.67339114791923
 40
34.67339114791923
 10
177.194181908623
 20
58.23188488824279
 30
0.0
 41
1.0
 10
182.5408522692537
 20
58.23023693501312
 30
0.0
 41
0.9999999999999941
 10
187.8875226302437
 20
58.22859014497047
 30
0.0
 41
1.0
 10
189.5587541045715
 20
58.22807380612873
 30
0.0
 41
0.9999999999946336
 10
191.229985582249
 20
58.22756842559423
 30
0.0
 41
1.0
 10
192.0855483635131
 20
58.22731155010692
 30
0.0
 41
0.9999999973875977
 10
192.9411110987015
 20
58.22693098957107
 30
0.0
 41
1.0
 10
193.0089723691455
 20
58.22693395344459
 30
0.0
 41
0.9999999969490232
 10
193.0768336382984
 20
58.2269475192828
 30
0.0
 41
1.0
 10
193.1700168925611
 20
58.22696195880063
 30
0.0
 41
0.9999999999800454
 10
193.2632001466341
 20
58.22697757566512
 30
0.0
 41
1.0
 10
193.4063180546316
 20
58.22700415418318
 30
0.0
 41
0.9999999258819657
 10
193.5494359406649
 20
58.22692052779864
 30
0.0
 41
1.0
 10
193.7760020172121
 20
58.22671693007245
 30
0.0
 41
0.9999999452652621
 10
194.0025679094297
 20
58.22636340831902
 30
0.0
 41
1.0
 10
194.3376959511848
 20
58.22592290424927
 30
0.0
 41
0.9999999321095466
 10
194.6728235772939
 20
58.22523542126956
 30
0.0
 41
1.0
 10
194.9726885470701
 20
58.22455166112731
 30
0.0
 41
0.9999996568932008
 10
195.2725519724775
 20
58.22337109778637
 30
0.0
 41
1.0
 10
195.5304901462813
 20
58.22247534677908
 30
0.0
 41
0.9999979832787481
 10
195.7884226413876
 20
58.22054354884267
 30
0.0
 41
1.0
 10
196.0705709903694
 20
58.21827854968945
 30
0.0
 41
0.99998885869963
 10
196.3526853821133
 20
58.21334995706154
 30
0.0
 41
1.0
 10
196.6426917862339
 20
58.20838127164414
 30
0.0
 41
0.9999778197253525
 10
196.9326062762061
 20
58.19955003334302
 30
0.0
 41
1.0
 10
197.0594022271714
 20
58.19564448151166
 30
0.0
 41
0.9999876620755151
 10
197.1861531196838
 20
58.19047942937048
 30
0.0
 41
1.0
 10
197.3373455690756
 20
58.18428788274773
 30
0.0
 41
0.9999750294202604
 10
197.4884354097799
 20
58.17596009560778
 30
0.0
 41
1.0
 10
198.0282432859461
 20
58.14777975918646
 30
0.0
 41
0.9993805554735674
 10
198.5647318132824
 20
58.081698486739
 30
0.0
 41
1.0
 10
199.1192669110715
 20
58.01269815579386
 30
0.0
 41
0.9985437122188975
 10
199.6631400053969
 20
57.88435378459074
 30
0.0
 41
1.0
 10
200.1950885700551
 20
57.75842697240871
 30
0.0
 41
0.9978623013636135
 10
200.706069568615
 20
57.5641970659088
 30
0.0
 41
1.0
 10
201.2136128806848
 20
57.37080963261508
 30
0.0
 41
0.9973542605935592
 10
201.6877500024662
 20
57.10587020042074
 30
0.0
 41
1.0
 10
202.1634051580794
 20
56.83989573170724
 30
0.0
 41
0.997114632209117
 10
202.5933144544814
 20
56.50498045594937
 30
0.0
 41
1.0
 10
203.0220250299795
 20
56.17106897829499
 30
0.0
 41
0.997038465944082
 10
203.3944580918313
 20
55.77536296760915
 30
0.0
 41
1.0
 10
203.7671210771996
 20
55.37955908615894
 30
0.0
 41
0.9970782986134992
 10
204.0751438684583
 20
54.93160777931858
 30
0.0
 41
1.0
 10
204.3814511026244
 20
54.48595585839068
 30
0.0
 41
0.9972141359531576
 10
204.6180508461419
 20
53.99969428506135
 30
0.0
 41
1.0
 10
204.8550035216153
 20
53.51198044517353
 30
0.0
 41
0.9975425241457113
 10
205.0214557800647
 20
52.99593296122534
 30
0.0
 41
1.0
 10
205.1901986849187
 20
52.47196238517676
 30
0.0
 41
0.9980984606726241
 10
205.2931872898415
 20
51.93121042747406
 30
0.0
 41
1.0
 10
205.3957987952142
 20
51.38901675567757
 30
0.0
 41
0.9988914160557417
 10
205.4469659377841
 20
50.8395761107556
 30
0.0
 41
1.0
 10
205.4983403604393
 20
50.28374997038953
 30
0.0
 41
0.999564282061319
 10
205.5168270569418
 20
49.72586084908509
 30
0.0
 41
1.0
 10
205.5268099670752
 20
49.44456993247021
 30
0.0
 41
0.9999612880030329
 10
205.5318413624699
 20
49.16314689978604
 30
0.0
 41
1.0
 10
205.5369364246602
 20
48.87691719351432
 30
0.0
 41
0.9999880005692546
 10
205.5392268839659
 20
48.59065130625687
 30
0.0
 41
1.0
 10
205.5397853124076
 20
48.52497280474888
 30
0.0
 41
0.9999997868024235
 10
205.5402579656657
 20
48.45929362995535
 30
0.0
 41
1.0
  0
SPLINE
  5
D5
330
1F
100
AcDbEntity
  8
MAKE2D_VISIBLE_LINES_-_TAN
100
AcDbSpline
210
0.0
220
0.0
230
1.0
 70
    24
 71
     2
 72
     6
 73
     3
 74
     0
 42
0.0000000001
 43
0.0000000001
 40
0.0
 40
0.0
 40
0.0
 40
0.2000000000000171
 40
0.2000000000000171
 40
0.2000000000000171
 10
162.9191665105779
 20
51.29929362995536
 30
0.0
 10
162.9191665105779
 20
51.39929362995537
 30
0.0
 10
162.9191665105779
 20
51.49929362995537
 30
0.0
  0
SPLINE
  5
D6
330
1F
100
AcDbEntity
  8
MAKE2D_VISIBLE_LINES_-_TAN
100
AcDbSpline
210
0.0
220
0.0
230
1.0
 70
    24
 71
     2
 72
     6
 73
     3
 74
     0
 42
0.0000000001
 43
0.0000000001
 40
0.0
 40
0.0
 40
0.0
 40
0.2000000000000171
 40
0.2000000000000171
 40
0.2000000000000171
 10
162.9191665105779
 20
52.11929362995535
 30
0.0
 10
162.9191665105779
 20
52.21929362995536
 30
0.0
 10
162.9191665105779
 20
52.31929362995537
 30
0.0
  0
SPLINE
  5
D7
330
1F
100
AcDbEntity
  8
MAKE2D_VISIBLE_LINES
100
AcDbSpline
210
0.0
220
0.0
230
1.0
 70
    12
 71
     2
 72
     6
 73
     3
 74
     0
 42
0.0000000001
 43
0.0000000001
 40
0.0
 40
0.0
 40
0.0
 40
2.224550669829021
 40
2.224550669829021
 40
2.224550669829021
 10
165.2091663226839
 20
51.80977982843048
 30
0.0
 41
1.0
 10
165.2601667119907
 20
53.1893379384222
 30
0.0
 41
0.7324892725631377
 10
166.6397630514695
 20
53.23929350518016
 30
0.0
 41
1.0
  0
SPLINE
  5
D8
330
1F
100
AcDbEntity
  8
MAKE2D_VISIBLE_LINES
100
AcDbSpline
210
0.0
220
0.0
230
1.0
 70
    12
 71
     2
 72
     6
 73
     3
 74
     0
 42
0.0000000001
 43
0.0000000001
 40
2.224550669829021
 40
2.224550669829021
 40
2.224550669829021
 40
4.447662585325098
 40
4.447662585325098
 40
4.447662585325098
 10
166.6397630514695
 20
53.23929350518016
 30
0.0
 41
1.0
 10
168.0171621967489
 20
53.18687769310181
 30
0.0
 41
0.7333827223244533
 10
168.069166500522
 20
51.80946294976506
 30
0.0
 41
1.0
  0
SPLINE
  5
D9
330
1F
100
AcDbEntity
  8
MAKE2D_VISIBLE_LINES
100
AcDbSpline
210
0.0
220
0.0
230
1.0
 70
    24
 71
     2
 72
     6
 73
     3
 74
     0
 42
0.0000000001
 43
0.0000000001
 40
0.0
 40
0.0
 40
0.0
 40
0.1811025540826087
 40
0.1811025540826087
 40
0.1811025540826087
 10
206.981107666496
 20
42.02735247403737
 30
0.0
 10
207.045137088537
 20
41.96332305199636
 30
0.0
 10
207.109166510578
 20
41.89929362995535
 30
0.0
  0
SPLINE
  5
DA
330
1F
100
AcDbEntity
  8
MAKE2D_VISIBLE_LINES
100
AcDbSpline
210
0.0
220
0.0
230
1.0
 70
    24
 71
     2
 72
     6
 73
     3
 74
     0
 42
0.0000000001
 43
0.0000000001
 40
0.0
 40
0.0
 40
0.0
 40
0.2121320343559723
 40
0.2121320343559723
 40
0.2121320343559723
 10
207.059166510578
 20
15.98929362995536
 30
0.0
 10
206.984166510578
 20
15.91429362995535
 30
0.0
 10
206.909166510578
 20
15.83929362995535
 30
0.0
  0
SPLINE
  5
DB
330
1F
100
AcDbEntity
  8
MAKE2D_VISIBLE_LINES
100
AcDbSpline
210
0.0
220
0.0
230
1.0
 70
    24
 71
     2
 72
     6
 73
     3
 74
     0
 42
0.0000000001
 43
0.0000000001
 40
0.0
 40
0.0
 40
0.0
 40
0.2121320343559723
 40
0.2121320343559723
 40
0.2121320343559723
 10
207.059166510578
 20
26.27929362995535
 30
0.0
 10
206.984166510578
 20
26.20429362995534
 30
0.0
 10
206.909166510578
 20
26.12929362995534
 30
0.0
  0
SPLINE
  5
DC
330
1F
100
AcDbEntity
  8
MAKE2D_VISIBLE_LINES
100
AcDbSpline
210
0.0
220
0.0
230
1.0
 70
    24
 71
     2
 72
     6
 73
     3
 74
     0
 42
0.0000000001
 43
0.0000000001
 40
0.0
 40
0.0
 40
0.0
 40
0.4300099860520561
 40
0.4300099860520561
 40
0.4300099860520561
 10
206.4791565245259
 20
30.32929362995536
 30
0.0
 10
206.694161517552
 20
30.32929362995536
 30
0.0
 10
206.909166510578
 20
30.32929362995536
 30
0.0
  0
SPLINE
  5
DD
330
1F
100
AcDbEntity
  8
MAKE2D_VISIBLE_LINES
100
AcDbSpline
210
0.0
220
0.0
230
1.0
 70
    24
 71
     2
 72
     6
 73
     3
 74
     0
 42
0.0000000001
 43
0.0000000001
 40
0.0
 40
0.0
 40
0.0
 40
0.4300099024119319
 40
0.4300099024119319
 40
0.4300099024119319
 10
206.4791566081661
 20
20.03929362995537
 30
0.0
 10
206.694161559372
 20
20.03929362995537
 30
0.0
 10
206.909166510578
 20
20.03929362995537
 30
0.0
  0
SPLINE
  5
DE
330
1F
100
AcDbEntity
  8
MAKE2D_VISIBLE_LINES
100
AcDbSpline
210
0.0
220
0.0
230
1.0
 70
    24
 71
     2
 72
     6
 73
     3
 74
     0
 42
0.0000000001
 43
0.0000000001
 40
0.0
 40
0.0
 40
0.0
 40
0.4800100366101816
 40
0.4800100366101816
 40
0.4800100366101816
 10
206.959166510578
 20
36.54931154321604
 30
0.0
 10
206.7191614922729
 20
36.54931154321604
 30
0.0
 10
206.4791564739678
 20
36.54931154321604
 30
0.0
  0
SPLINE
  5
DF
330
1F
100
AcDbEntity
  8
MAKE2D_VISIBLE_LINES
100
AcDbSpline
210
0.0
220
0.0
230
1.0
 70
    24
 71
     2
 72
     6
 73
     3
 74
     0
 42
0.0000000001
 43
0.0000000001
 40
0.0
 40
0.0
 40
0.0
 40
29.79634081067267
 40
29.79634081067267
 40
29.79634081067267
 10
102.2959904711447
 20
57.71929362995536
 30
0.0
 10
117.194160876481
 20
57.71929362995536
 30
0.0
 10
132.0923312818174
 20
57.71929362995536
 30
0.0
  0
SPLINE
  5
E0
330
1F
100
AcDbEntity
  8
MAKE2D_VISIBLE_LINES
100
AcDbSpline
210
0.0
220
0.0
230
1.0
 70
    12
 71
     2
 72
     6
 73
     3
 74
     0
 42
0.0000000001
 43
0.0000000001
 40
0.0
 40
0.0
 40
0.0
 40
0.8148227530654056
 40
0.8148227530654056
 40
0.8148227530654056
 10
145.5438561964409
 20
-53.15589267515741
 30
0.0
 41
1.0
 10
145.5431665197264
 20
-53.56330449315049
 30
0.0
 41
0.9999962254108389
 10
145.5402380734622
 20
-53.97070637004464
 30
0.0
 41
1.0
  0
SPLINE
  5
E1
330
1F
100
AcDbEntity
  8
MAKE2D_VISIBLE_LINES
100
AcDbSpline
210
0.0
220
0.0
230
1.0
 70
    12
 71
     2
 72
     6
 73
     3
 74
     0
 42
0.0000000001
 43
0.0000000001
 40
0.0
 40
0.0
 40
0.0
 40
0.8123038854613703
 40
0.8123038854613703
 40
0.8123038854613703
 10
88.84807437805908
 20
-53.97070637004463
 30
0.0
 41
1.0
 10
88.84515256204149
 20
-53.56456391661926
 30
0.0
 41
0.9999962313670121
 10
88.84446083317658
 20
-53.15841154251023
 30
0.0
 41
1.0
  0
SPLINE
  5
E2
330
1F
100
AcDbEntity
  8
MAKE2D_VISIBLE_LINES
100
AcDbSpline
210
0.0
220
0.0
230
1.0
 70
     8
 71
     3
 72
    14
 73
    10
 74
     0
 42
0.0000000001
 43
0.0000000001
 40
0.0
 40
0.0
 40
0.0
 40
0.0
 40
3.493800081525121
 40
4.86579668296419
 40
7.041917219273869
 40
11.31043296444387
 40
15.84689112966899
 40
18.1856055067242
 40
21.23897715912231
 40
21.23897715912231
 40
21.23897715912231
 40
21.23897715912231
 10
132.0925609089788
 20
-64.67070633518601
 30
0.0
 10
133.2576844580868
 20
-64.66678588819423
 30
0.0
 10
134.8782261797168
 20
-64.67778589618857
 30
0.0
 10
137.2272641568266
 20
-64.64563785031135
 30
0.0
 10
139.8268603400237
 20
-64.49280364565011
 30
0.0
 10
143.3582976886876
 20
-63.14447871836094
 30
0.0
 10
145.6752461005602
 20
-60.03376812883757
 30
0.0
 10
146.4321022815819
 20
-56.79286014918112
 30
0.0
 10
146.4655401487141
 20
-54.98658802862095
 30
0.0
 10
146.4722791068878
 20
-53.97070630353739
 30
0.0
  0
SPLINE
  5
E3
330
1F
100
AcDbEntity
  8
MAKE2D_VISIBLE_LINES_-_TAN
100
AcDbSpline
210
0.0
220
0.0
230
1.0
 70
    12
 71
     2
 72
     6
 73
     3
 74
     0
 42
0.0000000001
 43
0.0000000001
 40
0.0
 40
0.0
 40
0.0
 40
0.6320097360158031
 40
0.6320097360158031
 40
0.6320097360158031
 10
88.54806001879903
 20
-53.97070641725577
 30
0.0
 41
1.0
 10
88.23205515087317
 20
-53.97071889399754
 30
0.0
 41
0.9999999992202134
 10
87.91605028294751
 20
-53.97070641177034
 30
0.0
 41
1.0
  0
SPLINE
  5
E4
330
1F
100
AcDbEntity
  8
MAKE2D_VISIBLE_LINES
100
AcDbSpline
210
0.0
220
0.0
230
1.0
 70
    12
 71
     2
 72
    82
 73
    79
 74
     0
 42
0.0000000001
 43
0.0000000001
 40
0.0
 40
0.0
 40
0.0
 40
2.114964810257936
 40
2.114964810257936
 40
4.229929700632825
 40
4.229929700632825
 40
5.023041484523746
 40
5.023041484523746
 40
5.816153281497167
 40
5.816153281497167
 40
6.609265089352165
 40
6.609265089352165
 40
7.40237693138388
 40
7.40237693138388
 40
8.327674011919894
 40
8.327674011919894
 40
9.252971151627538
 40
9.252971151627538
 40
10.17826195071
 40
10.17826195071
 40
11.1032132319969
 40
11.1032132319969
 40
11.56531784305313
 40
11.56531784305313
 40
12.02700802522201
 40
12.02700802522201
 40
12.9491433373637
 40
12.9491433373637
 40
13.87147487399281
 40
13.87147487399281
 40
14.33455193099767
 40
14.33455193099767
 40
14.80068264378532
 40
14.80068264378532
 40
15.27016631450655
 40
15.27016631450655
 40
15.73707136536643
 40
15.73707136536643
 40
16.66723332040819
 40
16.66723332040819
 40
17.60464732662245
 40
17.60464732662245
 40
18.53542246070937
 40
18.53542246070937
 40
19.46794546325293
 40
19.46794546325293
 40
20.40438678025937
 40
20.40438678025937
 40
21.33572578164043
 40
21.33572578164043
 40
22.2728604202777
 40
22.2728604202777
 40
23.20102976718872
 40
23.20102976718872
 40
23.66340972591607
 40
23.66340972591607
 40
24.1257442847109
 40
24.1257442847109
 40
24.58840400979255
 40
24.58840400979255
 40
25.05154172619635
 40
25.05154172619635
 40
25.97888760468814
 40
25.97888760468814
 40
26.90710803015337
 40
26.90710803015337
 40
27.37124791214503
 40
27.37124791214503
 40
27.83538758021649
 40
27.83538758021649
 40
28.10061024497151
 40
28.10061024497151
 40
28.36583298677032
 40
28.36583298677032
 40
28.89627887229205
 40
28.89627887229205
 40
29.294113051971
 40
29.294113051971
 40
29.69194718963456
 40
29.69194718963456
 40
29.69194718963456
 10
89.34917799661183
 20
37.74463584099306
 30
0.0
 41
1.0
 10
89.34925048225308
 20
38.80211824375052
 30
0.0
 41
0.9999999998400235
 10
89.34936079876243
 20
39.85960064323817
 30
0.0
 41
1.0
 10
89.34946057748137
 20
40.91708308872337
 30
0.0
 41
0.9999999929005091
 10
89.34930833808356
 20
41.97456552795737
 30
0.0
 41
1.0
 10
89.3493378240223
 20
42.37112142556028
 30
0.0
 41
0.9999999744537683
 10
89.34954658210332
 20
42.76767726931138
 30
0.0
 41
1.0
 10
89.349728877323
 20
43.16423313586871
 30
0.0
 41
0.9999999622846055
 10
89.34969334703554
 20
43.56078904273457
 30
0.0
 41
1.0
 10
89.3496130167905
 20
43.95734495600961
 30
0.0
 41
0.9999999338663704
 10
89.34982112994064
 20
44.35390082281185
 30
0.0
 41
1.0
 10
89.35008479252244
 20
44.75045665724593
 30
0.0
 41
0.999999995951297
 10
89.35041982372037
 20
45.14701243780615
 30
0.0
 41
1.0
 10
89.35068634597194
 20
45.60966090302446
 30
0.0
 41
0.999999994425749
 10
89.35085516938352
 20
46.07230941420937
 30
0.0
 41
1.0
 10
89.35103343318671
 20
46.53495796401862
 30
0.0
 41
0.9999999536398878
 10
89.35149344986829
 20
46.99760631947146
 30
0.0
 41
1.0
 10
89.35183765073148
 20
47.46025180546329
 30
0.0
 41
0.9999993045740221
 10
89.35327308592097
 20
47.92289519265117
 30
0.0
 41
1.0
 10
89.35457818612157
 20
48.38537168021746
 30
0.0
 41
0.9999912804673113
 10
89.35974581222509
 20
48.84782113743267
 30
0.0
 41
1.0
 10
89.36246969990248
 20
49.07885949001979
 30
0.0
 41
0.9999863441967344
 10
89.3676082338884
 20
49.30985675277137
 30
0.0
 41
1.0
 10
89.37274362509108
 20
49.54064955240144
 30
0.0
 41
0.9999685805351606
 10
89.38153726284192
 20
49.77133193261068
 30
0.0
 41
1.0
 10
89.39837305641676
 20
50.23218538637353
 30
0.0
 41
0.9996968280150177
 10
89.43787599536786
 20
50.69165123668745
 30
0.0
 41
1.0
 10
89.47757099997457
 20
51.1513389627663
 30
0.0
 41
0.9992438349599624
 10
89.55286550171691
 20
51.60655235987326
 30
0.0
 41
1.0
 10
89.5910091255634
 20
51.83497565725379
 30
0.0
 41
0.9996916652141218
 10
89.64044613536275
 20
52.06122357633467
 30
0.0
 41
1.0
 10
89.6902809093073
 20
52.28895777651958
 30
0.0
 41
0.9996286236303005
 10
89.75244900880685
 20
52.51363865695356
 30
0.0
 41
1.0
 10
89.81501761249842
 20
52.73996126597731
 30
0.0
 41
0.9995507794565341
 10
89.89103378595077
 20
52.96212853381147
 30
0.0
 41
1.0
 10
89.96670290128195
 20
53.1830616927268
 30
0.0
 41
0.9994884957827552
 10
90.05634107503442
 20
53.39870555081146
 30
0.0
 41
1.0
 10
90.23482076928136
 20
53.82894691414685
 30
0.0
 41
0.9977103182108801
 10
90.46973081787624
 20
54.23116563704806
 30
0.0
 41
1.0
 10
90.70667815067668
 20
54.63647314061216
 30
0.0
 41
0.9975092211024966
 10
90.99830296538103
 20
55.00440408306645
 30
0.0
 41
1.0
 10
91.28787400906614
 20
55.36972800316251
 30
0.0
 41
0.9974894629207408
 10
91.62615175386267
 20
55.69047887737895
 30
0.0
 41
1.0
 10
91.965098402499
 20
56.01180101881782
 30
0.0
 41
0.9974796645032287
 10
92.34611489676018
 20
56.28191058973596
 30
0.0
 41
1.0
 10
92.72871249894253
 20
56.55314006410348
 30
0.0
 41
0.9975590870987656
 10
93.14536515796927
 20
56.76842339993635
 30
0.0
 41
1.0
 10
93.55972198131134
 20
56.9824142624391
 30
0.0
 41
0.9978080108467012
 10
93.99870947194383
 20
57.13981073429605
 30
0.0
 41
1.0
 10
94.44039656569696
 20
57.29783817466996
 30
0.0
 41
0.9982793669415055
 10
94.89754699238509
 20
57.40306957719815
 30
0.0
 41
1.0
 10
95.3501845026462
 20
57.5070763068305
 30
0.0
 41
0.9988750126478821
 10
95.81063932956232
 20
57.56773492430437
 30
0.0
 41
1.0
 10
96.03984104246406
 20
57.59819804651986
 30
0.0
 41
0.9998229490505363
 10
96.27002667990745
 20
57.62001545532556
 30
0.0
 41
1.0
 10
96.50017915663284
 20
57.6418317903948
 30
0.0
 41
0.9998904880667826
 10
96.73087647244986
 20
57.65682723948746
 30
0.0
 41
1.0
 10
96.96172553997722
 20
57.67189087454063
 30
0.0
 41
0.999934137555367
 10
97.19285953899433
 20
57.68165200037845
 30
0.0
 41
1.0
 10
97.42423409517697
 20
57.69126668344142
 30
0.0
 41
0.9999651577975682
 10
97.65573691986994
 20
57.69701729543385
 30
0.0
 41
1.0
 10
98.11927457236898
 20
57.70867870259801
 30
0.0
 41
0.9999632012634937
 10
98.58294407054106
 20
57.71238547561597
 30
0.0
 41
1.0
 10
99.04704333355022
 20
57.71571248035885
 30
0.0
 41
0.9999968477472936
 10
99.51115345207232
 20
57.71670885961554
 30
0.0
 41
1.0
 10
99.74322246159046
 20
57.71737724301445
 30
0.0
 41
0.9999997994490336
 10
99.97529213155103
 20
57.71775167523515
 30
0.0
 41
1.0
 10
100.20736166311
 20
57.71812735644924
 30
0.0
 41
0.9999999896251613
 10
100.4394312932701
 20
57.71843617958481
 30
0.0
 41
1.0
 10
100.5720425083831
 20
57.71861264994546
 30
0.0
 41
0.9999999982683513
 10
100.7046537018071
 20
57.71880472858793
 30
0.0
 41
1.0
 10
100.8372649827675
 20
57.71897223290283
 30
0.0
 41
0.9999998207146178
 10
100.9698763692326
 20
57.71898091979818
 30
0.0
 41
1.0
 10
101.2350993143196
 20
57.71903181961073
 30
0.0
 41
0.9999999592209057
 10
101.5003222452168
 20
57.7189312325939
 30
0.0
 41
1.0
 10
101.6992393413539
 20
57.7189473339475
 30
0.0
 41
0.9999999475969727
 10
101.8981563853703
 20
57.71909222918867
 30
0.0
 41
1.0
 10
102.0970734164586
 20
57.71921623627276
 30
0.0
 41
0.9999999931358367
 10
102.2959904711447
 20
57.7192936299553
 30
0.0
 41
1.0
  0
SPLINE
  5
E5
330
1F
100
AcDbEntity
  8
MAKE2D_VISIBLE_LINES
100
AcDbSpline
210
0.0
220
0.0
230
1.0
 70
    12
 71
     2
 72
     6
 73
     3
 74
     0
 42
0.0000000001
 43
0.0000000001
 40
0.0
 40
0.0
 40
0.0
 40
0.9248661001000844
 40
0.9248661001000844
 40
0.9248661001000844
 10
142.7487256420231
 20
55.7150023840243
 30
0.0
 41
1.0
 10
142.4105181264837
 20
56.03150509176749
 30
0.0
 41
0.997504099264432
 10
142.0310988673413
 20
56.29721040478921
 30
0.0
 41
1.0
  0
SPLINE
  5
E6
330
1F
100
AcDbEntity
  8
MAKE2D_VISIBLE_LINES
100
AcDbSpline
210
0.0
220
0.0
230
1.0
 70
    24
 71
     2
 72
     6
 73
     3
 74
     0
 42
0.0000000001
 43
0.0000000001
 40
0.0
 40
0.0
 40
0.0
 40
29.79647878521337
 40
29.79647878521337
 40
29.79647878521337
 10
132.0924572391269
 20
-64.03870625306874
 30
0.0
 10
117.1942178465202
 20
-64.038706302696
 30
0.0
 10
102.2959784539135
 20
-64.03870635232326
 30
0.0
  0
SPLINE
  5
E7
330
1F
100
AcDbEntity
  8
MAKE2D_VISIBLE_LINES_-_TAN
100
AcDbSpline
210
0.0
220
0.0
230
1.0
 70
    24
 71
     2
 72
     6
 73
     3
 74
     0
 42
0.0000000001
 43
0.0000000001
 40
0.0
 40
0.0
 40
0.0
 40
0.6319925426330437
 40
0.6319925426330437
 40
0.6319925426330437
 10
145.8471642508212
 20
37.74462653487872
 30
0.0
 10
146.1631605221168
 20
37.74462289517255
 30
0.0
 10
146.4791567934123
 20
37.74461925546638
 30
0.0
  0
SPLINE
  5
E8
330
1F
100
AcDbEntity
  8
MAKE2D_VISIBLE_LINES_-_TAN
100
AcDbSpline
210
0.0
220
0.0
230
1.0
 70
    24
 71
     2
 72
     6
 73
     3
 74
     0
 42
0.0000000001
 43
0.0000000001
 40
0.0
 40
0.0
 40
0.0
 40
0.6319911705018508
 40
0.6319911705018508
 40
0.6319911705018508
 10
87.90917408246092
 20
-43.2560319955728
 30
0.0
 10
88.22516966769089
 20
-43.25603563531138
 30
0.0
 10
88.54116525292085
 20
-43.25603927504996
 30
0.0
  0
SPLINE
  5
E9
330
1F
100
AcDbEntity
  8
MAKE2D_VISIBLE_LINES
100
AcDbSpline
210
0.0
220
0.0
230
1.0
 70
    12
 71
     2
 72
     6
 73
     3
 74
     0
 42
0.0000000001
 43
0.0000000001
 40
0.0
 40
0.0
 40
0.0
 40
3.24969989836095
 40
3.24969989836095
 40
3.24969989836095
 10
140.3837629544558
 20
57.14372179135022
 30
0.0
 41
1.0
 10
138.8298111049594
 20
57.66031719451674
 30
0.0
 41
0.9883887099100063
 10
137.192446846017
 20
57.68630651278092
 30
0.0
 41
1.0
  0
SPLINE
  5
EA
330
1F
100
AcDbEntity
  8
MAKE2D_VISIBLE_LINES
100
AcDbSpline
210
0.0
220
0.0
230
1.0
 70
    24
 71
     2
 72
     6
 73
     3
 74
     0
 42
0.0000000001
 43
0.0000000001
 40
0.0
 40
0.0
 40
0.0
 40
81.00065125102205
 40
81.00065125102205
 40
81.00065125102205
 10
146.4791567934886
 20
-43.25603199555567
 30
0.0
 10
146.4791567934504
 20
-2.755706370044646
 30
0.0
 10
146.4791567934123
 20
37.74461925546638
 30
0.0
  0
SPLINE
  5
EB
330
1F
100
AcDbEntity
  8
MAKE2D_VISIBLE_LINES
100
AcDbSpline
210
0.0
220
0.0
230
1.0
 70
    12
 71
     2
 72
     6
 73
     3
 74
     0
 42
0.0000000001
 43
0.0000000001
 40
0.0
 40
0.0
 40
0.0
 40
9.814675265851722
 40
9.814675265851722
 40
9.814675265851722
 10
87.90917259557703
 20
-43.25603199555567
 30
0.0
 41
1.0
 10
87.90828497258131
 20
-48.16336995294142
 30
0.0
 41
0.9999998762867901
 10
87.91227936303174
 20
-53.07070636495951
 30
0.0
 41
1.0
  0
SPLINE
  5
EC
330
1F
100
AcDbEntity
  8
MAKE2D_VISIBLE_LINES_-_TAN
100
AcDbSpline
210
0.0
220
0.0
230
1.0
 70
    24
 71
     2
 72
     6
 73
     3
 74
     0
 42
0.0000000001
 43
0.0000000001
 40
0.0
 40
0.0
 40
0.0
 40
0.6319926573878281
 40
0.6319926573878281
 40
0.6319926573878281
 10
146.4791567934886
 20
-43.25603199555567
 30
0.0
 10
146.1631604648156
 20
-43.25603563530316
 30
0.0
 10
145.8471641361427
 20
-43.25603927505065
 30
0.0
  0
SPLINE
  5
ED
330
1F
100
AcDbEntity
  8
MAKE2D_VISIBLE_LINES_-_TAN
100
AcDbSpline
210
0.0
220
0.0
230
1.0
 70
    12
 71
     2
 72
     6
 73
     3
 74
     0
 42
0.0000000001
 43
0.0000000001
 40
0.0
 40
0.0
 40
0.0
 40
0.3999951978569591
 40
0.3999951978569591
 40
0.3999951978569591
 10
132.0924067714254
 20
58.15929853258501
 30
0.0
 41
1.0
 10
132.0924757738437
 20
57.95930091709834
 30
0.0
 41
0.999999786534995
 10
132.0922834198632
 20
57.75930338220945
 30
0.0
 41
1.0
  0
SPLINE
  5
EE
330
1F
100
AcDbEntity
  8
MAKE2D_VISIBLE_LINES
100
AcDbSpline
210
0.0
220
0.0
230
1.0
 70
    12
 71
     2
 72
     6
 73
     3
 74
     0
 42
0.0000000001
 43
0.0000000001
 40
0.0
 40
0.0
 40
0.0
 40
3.709590301442633
 40
3.709590301442633
 40
3.709590301442633
 10
135.8019181366254
 20
57.71244393859456
 30
0.0
 41
1.0
 10
133.947138029166
 20
57.72101468886465
 30
0.0
 41
0.9999961514099914
 10
132.0923389180105
 20
57.71929362995536
 30
0.0
 41
1.0
  0
SPLINE
  5
EF
330
1F
100
AcDbEntity
  8
MAKE2D_VISIBLE_LINES_-_TAN
100
AcDbSpline
210
0.0
220
0.0
230
1.0
 70
    12
 71
     2
 72
     6
 73
     3
 74
     0
 42
0.0000000001
 43
0.0000000001
 40
0.0
 40
0.0
 40
0.0
 40
0.9312260085744593
 40
0.9312260085744593
 40
0.9312260085744593
 10
97.19506874140507
 20
-63.23616862970041
 30
0.0
 41
1.0
 10
96.72970937618344
 20
-63.21753295430193
 30
0.0
 41
0.9996156450036066
 10
96.26609820111433
 20
-63.17313356750327
 30
0.0
 41
1.0
  0
SPLINE
  5
F0
330
1F
100
AcDbEntity
  8
MAKE2D_VISIBLE_LINES_-_TAN
100
AcDbSpline
210
0.0
220
0.0
230
1.0
 70
    12
 71
     2
 72
     6
 73
     3
 74
     0
 42
0.0000000001
 43
0.0000000001
 40
0.0
 40
0.0
 40
0.0
 40
0.9329916301119178
 40
0.9329916301119178
 40
0.9329916301119178
 10
89.52204154807518
 20
-57.17639473535726
 30
0.0
 41
1.0
 10
89.44298362630052
 20
-56.71639333071386
 30
0.0
 41
0.9991974758850947
 10
89.40100053849686
 20
-56.25153973267714
 30
0.0
 41
1.0
  0
SPLINE
  5
F1
330
1F
100
AcDbEntity
  8
MAKE2D_VISIBLE_LINES_-_TAN
100
AcDbSpline
210
0.0
220
0.0
230
1.0
 70
    12
 71
     2
 72
     6
 73
     3
 74
     0
 42
0.0000000001
 43
0.0000000001
 40
0.0
 40
0.0
 40
0.0
 40
11.1370482005463
 40
11.1370482005463
 40
11.1370482005463
 10
89.32015129901696
 20
-54.39308457276714
 30
0.0
 41
1.0
 10
89.30437546592269
 20
-48.82457649021054
 30
0.0
 41
0.999998295136373
 10
89.30916469453174
 20
-43.25604812037193
 30
0.0
 41
1.0
  0
SPLINE
  5
F2
330
1F
100
AcDbEntity
  8
MAKE2D_VISIBLE_LINES_-_TAN
100
AcDbSpline
210
0.0
220
0.0
230
1.0
 70
    24
 71
     2
 72
     6
 73
     3
 74
     0
 42
0.0000000001
 43
0.0000000001
 40
0.0
 40
0.0
 40
0.0
 40
0.6319872562865524
 40
0.6319872562865524
 40
0.6319872562865524
 10
88.54116525292093
 20
37.74462653496067
 30
0.0
 10
88.22517162479862
 20
37.74462289524465
 30
0.0
 10
87.9091779966763
 20
37.74461925552862
 30
0.0
  0
SPLINE
  5
F3
330
1F
100
AcDbEntity
  8
MAKE2D_VISIBLE_LINES_-_TAN
100
AcDbSpline
210
0.0
220
0.0
230
1.0
 70
    12
 71
     2
 72
     6
 73
     3
 74
     0
 42
0.0000000001
 43
0.0000000001
 40
0.0
 40
0.0
 40
0.0
 40
0.4000033243745533
 40
0.4000033243745533
 40
0.4000033243745533
 10
145.0791497296888
 20
37.74463538028112
 30
0.0
 41
1.0
 10
145.2791513918662
 20
37.74463306831019
 30
0.0
 41
0.9999999999744672
 10
145.47915305399
 20
37.74462789790816
 30
0.0
 41
1.0
  0
SPLINE
  5
F4
330
1F
100
AcDbEntity
  8
MAKE2D_VISIBLE_LINES
100
AcDbSpline
210
0.0
220
0.0
230
1.0
 70
     8
 71
     3
 72
    14
 73
    10
 74
     0
 42
0.0000000001
 43
0.0000000001
 40
0.0
 40
0.0
 40
0.0
 40
0.0
 40
3.505461276507388
 40
4.87607897155693
 40
7.074014464481994
 40
11.31197315085576
 40
15.87264802944296
 40
18.18926724608157
 40
21.23898634936986
 40
21.23898634936986
 40
21.23898634936986
 40
21.23898634936986
 10
102.2957684800878
 20
59.15929359509676
 30
0.0
 10
101.1264686039528
 20
59.15445625339626
 30
0.0
 10
99.50328213885089
 20
59.16811386807676
 30
0.0
 10
97.14268188761693
 20
59.13251615033926
 30
0.0
 10
94.54714795839622
 20
58.9800112029383
 30
0.0
 10
91.0137075486041
 20
57.61889540057021
 30
0.0
 10
88.70722520726083
 20
54.51281971968264
 30
0.0
 10
87.95789113134603
 20
51.27168103138878
 30
0.0
 10
87.92164960412003
 20
49.47391321226405
 30
0.0
 10
87.91605028216124
 20
48.45929356140778
 30
0.0
  0
SPLINE
  5
F5
330
1F
100
AcDbEntity
  8
MAKE2D_VISIBLE_LINES
100
AcDbSpline
210
0.0
220
0.0
230
1.0
 70
    12
 71
     2
 72
     6
 73
     3
 74
     0
 42
0.0000000001
 43
0.0000000001
 40
0.0
 40
0.0
 40
0.0
 40
0.9000087845000301
 40
0.9000087845000301
 40
0.9000087845000301
 10
146.4722791068878
 20
-53.97070630353739
 30
0.0
 41
1.0
 10
146.4752994534541
 20
-53.52071109332627
 30
0.0
 41
0.9999968198455286
 10
146.4760500260174
 20
-53.07070637296531
 30
0.0
 41
1.0
  0
SPLINE
  5
F6
330
1F
100
AcDbEntity
  8
MAKE2D_VISIBLE_LINES_-_TAN
100
AcDbSpline
210
0.0
220
0.0
230
1.0
 70
    12
 71
     2
 72
     6
 73
     3
 74
     0
 42
0.0000000001
 43
0.0000000001
 40
0.0
 40
0.0
 40
0.0
 40
0.6320013943063847
 40
0.6320013943063847
 40
0.6320013943063847
 10
146.4760482732883
 20
-53.07070637297829
 30
0.0
 41
1.0
 10
146.1600475761359
 20
-53.07070763419661
 30
0.0
 41
0.9999999999921467
 10
145.8440468789835
 20
-53.07070639071523
 30
0.0
 41
1.0
  0
SPLINE
  5
F7
330
1F
100
AcDbEntity
  8
MAKE2D_VISIBLE_LINES_-_TAN
100
AcDbSpline
210
0.0
220
0.0
230
1.0
 70
    12
 71
     2
 72
     6
 73
     3
 74
     0
 42
0.0000000001
 43
0.0000000001
 40
0.0
 40
0.0
 40
0.0
 40
0.6319777621745162
 40
0.6319777621745162
 40
0.6319777621745162
 10
88.54425712520298
 20
-53.07070639064432
 30
0.0
 41
1.0
 10
88.22826824411649
 20
-53.07070763006035
 30
0.0
 41
0.9999999999921473
 10
87.91227936303011
 20
-53.07070636496024
 30
0.0
 41
1.0
  0
SPLINE
  5
F8
330
1F
100
AcDbEntity
  8
MAKE2D_VISIBLE_LINES
100
AcDbSpline
210
0.0
220
0.0
230
1.0
 70
    24
 71
     2
 72
     6
 73
     3
 74
     0
 42
0.0000000001
 43
0.0000000001
 40
0.0
 40
0.0
 40
0.0
 40
81.00063178416227
 40
81.00063178416227
 40
81.00063178416227
 10
88.54116525292085
 20
-43.25602226213991
 30
0.0
 10
88.54116525292089
 20
-2.755706370058775
 30
0.0
 10
88.54116525292093
 20
37.74460952202236
 30
0.0
  0
SPLINE
  5
F9
330
1F
100
AcDbEntity
  8
MAKE2D_VISIBLE_LINES
100
AcDbSpline
210
0.0
220
0.0
230
1.0
 70
    12
 71
     2
 72
     6
 73
     3
 74
     0
 42
0.0000000001
 43
0.0000000001
 40
0.0
 40
0.0
 40
0.0
 40
9.814668028666327
 40
9.814668028666327
 40
9.814668028666327
 10
88.54116525292032
 20
37.74462653496067
 30
0.0
 41
1.0
 10
88.54024328726489
 20
42.6519608806562
 30
0.0
 41
0.9999998722413767
 10
88.54428251007408
 20
47.5592936506182
 30
0.0
 41
1.0
  0
SPLINE
  5
FA
330
1F
100
AcDbEntity
  8
MAKE2D_VISIBLE_LINES
100
AcDbSpline
210
0.0
220
0.0
230
1.0
 70
    12
 71
     2
 72
     6
 73
     3
 74
     0
 42
0.0000000001
 43
0.0000000001
 40
0.0
 40
0.0
 40
0.0
 40
9.814668028494712
 40
9.814668028494712
 40
9.814668028494712
 10
88.54428247833697
 20
-53.07070639054928
 30
0.0
 41
1.0
 10
88.5402432812862
 20
-48.16337362065524
 30
0.0
 41
0.9999998722423955
 10
88.54116525291705
 20
-43.25603927504996
 30
0.0
 41
1.0
  0
SPLINE
  5
FB
330
1F
100
AcDbEntity
  8
MAKE2D_VISIBLE_LINES_-_TAN
100
AcDbSpline
210
0.0
220
0.0
230
1.0
 70
    24
 71
     2
 72
     6
 73
     3
 74
     0
 42
0.0000000001
 43
0.0000000001
 40
0.0
 40
0.0
 40
0.0
 40
0.368000386309547
 40
0.368000386309547
 40
0.368000386309547
 10
88.54428251007464
 20
47.5592936506182
 30
0.0
 10
88.72828270322941
 20
47.55929364028678
 30
0.0
 10
88.91228289638418
 20
47.55929362995536
 30
0.0
  0
SPLINE
  5
FC
330
1F
100
AcDbEntity
  8
MAKE2D_VISIBLE_LINES
100
AcDbSpline
210
0.0
220
0.0
230
1.0
 70
    24
 71
     2
 72
     6
 73
     3
 74
     0
 42
0.0000000001
 43
0.0000000001
 40
0.0
 40
0.0
 40
0.0
 40
81.00066580995646
 40
81.00066580995646
 40
81.00066580995646
 10
145.8471619025862
 20
37.74462653490576
 30
0.0
 10
145.8471630193644
 20
-2.755706370072446
 30
0.0
 10
145.8471641361427
 20
-43.25603927505065
 30
0.0
  0
SPLINE
  5
FD
330
1F
100
AcDbEntity
  8
MAKE2D_VISIBLE_LINES
100
AcDbSpline
210
0.0
220
0.0
230
1.0
 70
    12
 71
     2
 72
     6
 73
     3
 74
     0
 42
0.0000000001
 43
0.0000000001
 40
0.0
 40
0.0
 40
0.0
 40
9.814668028664958
 40
9.814668028664958
 40
9.814668028664958
 10
145.8471641361432
 20
-43.25603927505065
 30
0.0
 41
1.0
 10
145.8480861017964
 20
-48.16337362074551
 30
0.0
 41
0.9999998722413768
 10
145.8440468789831
 20
-53.07070639070681
 30
0.0
 41
1.0
  0
SPLINE
  5
FE
330
1F
100
AcDbEntity
  8
MAKE2D_VISIBLE_LINES
100
AcDbSpline
210
0.0
220
0.0
230
1.0
 70
    12
 71
     2
 72
     6
 73
     3
 74
     0
 42
0.0000000001
 43
0.0000000001
 40
0.0
 40
0.0
 40
0.0
 40
9.814668027840517
 40
9.814668027840517
 40
9.814668027840517
 10
145.844046910712
 20
47.55929365046003
 30
0.0
 41
1.0
 10
145.8480849909884
 20
42.65196087997399
 30
0.0
 41
0.9999998722423955
 10
145.8471619025851
 20
37.74462653490576
 30
0.0
 41
1.0
  0
SPLINE
  5
FF
330
1F
100
AcDbEntity
  8
MAKE2D_VISIBLE_LINES
100
AcDbSpline
210
0.0
220
0.0
230
1.0
 70
    12
 71
     2
 72
     6
 73
     3
 74
     0
 42
0.0000000001
 43
0.0000000001
 40
0.0
 40
0.0
 40
0.0
 40
0.1000760299448667
 40
0.1000760299448667
 40
0.1000760299448667
 10
88.91250209346315
 20
47.65936941933761
 30
0.0
 41
1.0
 10
88.91238376194987
 20
47.60933154377442
 30
0.0
 41
0.9999999847701281
 10
88.91228289638411
 20
47.55929362995536
 30
0.0
 41
1.0
  0
SPLINE
  5
100
330
1F
100
AcDbEntity
  8
MAKE2D_VISIBLE_LINES
100
AcDbSpline
210
0.0
220
0.0
230
1.0
 70
    24
 71
     2
 72
     6
 73
     3
 74
     0
 42
0.0000000001
 43
0.0000000001
 40
0.0
 40
0.0
 40
0.0
 40
81.00065125102208
 40
81.00065125102208
 40
81.00065125102208
 10
87.90917259557501
 20
-43.25603199555567
 30
0.0
 10
87.90917259557503
 20
-2.755706370044631
 30
0.0
 10
87.90917259557503
 20
37.7446192554664
 30
0.0
  0
SPLINE
  5
101
330
1F
100
AcDbEntity
  8
MAKE2D_VISIBLE_LINES
100
AcDbSpline
210
0.0
220
0.0
230
1.0
 70
    24
 71
     2
 72
     6
 73
     3
 74
     0
 42
0.0000000001
 43
0.0000000001
 40
0.0
 40
0.0
 40
0.0
 40
1.100000000000009
 40
1.100000000000009
 40
1.100000000000009
 10
128.2791646945319
 20
59.58929362995536
 30
0.0
 10
127.7291646945319
 20
59.58929362995536
 30
0.0
 10
127.1791646945319
 20
59.58929362995536
 30
0.0
  0
SPLINE
  5
102
330
1F
100
AcDbEntity
  8
MAKE2D_VISIBLE_LINES
100
AcDbSpline
210
0.0
220
0.0
230
1.0
 70
    12
 71
     2
 72
     6
 73
     3
 74
     0
 42
0.0000000001
 43
0.0000000001
 40
0.0
 40
0.0
 40
0.0
 40
9.814675273857526
 40
9.814675273857526
 40
9.814675273857526
 10
87.91227936304698
 20
47.55929363287603
 30
0.0
 41
1.0
 10
87.9082849725784
 20
42.65195721685506
 30
0.0
 41
0.9999998762867891
 10
87.90917259557658
 20
37.7446192554664
 30
0.0
 41
1.0
  0
SPLINE
  5
103
330
1F
100
AcDbEntity
  8
MAKE2D_VISIBLE_LINES_-_TAN
100
AcDbSpline
210
0.0
220
0.0
230
1.0
 70
    24
 71
     2
 72
     6
 73
     3
 74
     0
 42
0.0000000001
 43
0.0000000001
 40
0.0
 40
0.0
 40
0.0
 40
0.4300000000000068
 40
0.4300000000000068
 40
0.4300000000000068
 10
128.2791646945319
 20
59.15929362995536
 30
0.0
 10
128.2791646945319
 20
59.37429362995536
 30
0.0
 10
128.2791646945319
 20
59.58929362995536
 30
0.0
  0
SPLINE
  5
104
330
1F
100
AcDbEntity
  8
MAKE2D_VISIBLE_LINES
100
AcDbSpline
210
0.0
220
0.0
230
1.0
 70
    24
 71
     2
 72
     6
 73
     3
 74
     0
 42
0.0000000001
 43
0.0000000001
 40
0.0
 40
0.0
 40
0.0
 40
1.099999999999994
 40
1.099999999999994
 40
1.099999999999994
 10
136.6791646945319
 20
59.58929362995536
 30
0.0
 10
136.1291646945319
 20
59.58929362995536
 30
0.0
 10
135.5791646945319
 20
59.58929362995536
 30
0.0
  0
SPLINE
  5
105
330
1F
100
AcDbEntity
  8
MAKE2D_VISIBLE_LINES_-_TAN
100
AcDbSpline
210
0.0
220
0.0
230
1.0
 70
    24
 71
     2
 72
     6
 73
     3
 74
     0
 42
0.0000000001
 43
0.0000000001
 40
0.0
 40
0.0
 40
0.0
 40
0.439108205577611
 40
0.439108205577611
 40
0.439108205577611
 10
135.5791646945319
 20
59.58929362995536
 30
0.0
 10
135.5791646945319
 20
59.36973952716656
 30
0.0
 10
135.5791646945319
 20
59.15018542437775
 30
0.0
  0
SPLINE
  5
106
330
1F
100
AcDbEntity
  8
MAKE2D_VISIBLE_LINES
100
AcDbSpline
210
0.0
220
0.0
230
1.0
 70
    24
 71
     2
 72
     6
 73
     3
 74
     0
 42
0.0000000001
 43
0.0000000001
 40
0.0
 40
0.0
 40
0.0
 40
29.79679242888822
 40
29.79679242888822
 40
29.79679242888822
 10
102.2957684800878
 20
59.15929359509676
 30
0.0
 10
117.1941646945319
 20
59.15929359504788
 30
0.0
 10
132.0925609089761
 20
59.15929359499901
 30
0.0
  0
SPLINE
  5
107
330
1F
100
AcDbEntity
  8
MAKE2D_VISIBLE_LINES
100
AcDbSpline
210
0.0
220
0.0
230
1.0
 70
    12
 71
     2
 72
     6
 73
     3
 74
     0
 42
0.0000000001
 43
0.0000000001
 40
0.0
 40
0.0
 40
0.0
 40
9.814675281523158
 40
9.814675281523158
 40
9.814675281523158
 10
146.4760500260165
 20
47.55929363287606
 30
0.0
 41
1.0
 10
146.4800674241048
 20
42.65195722413796
 30
0.0
 41
0.9999998739436864
 10
146.4791567934108
 20
37.74461925546638
 30
0.0
 41
1.0
  0
SPLINE
  5
108
330
1F
100
AcDbEntity
  8
MAKE2D_VISIBLE_LINES
100
AcDbSpline
210
0.0
220
0.0
230
1.0
 70
    12
 71
     2
 72
     6
 73
     3
 74
     0
 42
0.0000000001
 43
0.0000000001
 40
0.0
 40
0.0
 40
0.0
 40
9.814675281523137
 40
9.814675281523137
 40
9.814675281523137
 10
146.4760500260184
 20
-53.07070637296531
 30
0.0
 41
1.0
 10
146.4800674241447
 20
-48.16336996422726
 30
0.0
 41
0.9999998739436864
 10
146.4791567934888
 20
-43.25603199555567
 30
0.0
 41
1.0
  0
SPLINE
  5
109
330
1F
100
AcDbEntity
  8
MAKE2D_VISIBLE_LINES
100
AcDbSpline
210
0.0
220
0.0
230
1.0
 70
     8
 71
     3
 72
    14
 73
    10
 74
     0
 42
0.0000000001
 43
0.0000000001
 40
0.0
 40
0.0
 40
0.0
 40
0.0
 40
3.049718993002144
 40
5.366338209631419
 40
9.927013088200532
 40
14.16497177456636
 40
16.36290726749088
 40
17.73352496254039
 40
21.23898623904709
 40
21.23898623904709
 40
21.23898623904709
 40
21.23898623904709
 10
146.4722791061161
 20
48.45929367168043
 30
0.0
 10
146.4666797836823
 20
49.47391328594215
 30
0.0
 10
146.4304382492923
 20
51.27168106747183
 30
0.0
 10
145.6811041818649
 20
54.51281971960701
 30
0.0
 10
143.3746218404128
 20
57.61889540056735
 30
0.0
 10
139.8411814306855
 20
58.98001120285713
 30
0.0
 10
137.2456475014383
 20
59.13251615027121
 30
0.0
 10
134.8850472502205
 20
59.16811386798409
 30
0.0
 10
133.2618607851061
 20
59.15445625330794
 30
0.0
 10
132.092560908976
 20
59.15929359499901
 30
0.0
  0
SPLINE
  5
10A
330
1F
100
AcDbEntity
  8
MAKE2D_VISIBLE_LINES_-_TAN
100
AcDbSpline
210
0.0
220
0.0
230
1.0
 70
    24
 71
     2
 72
     6
 73
     3
 74
     0
 42
0.0000000001
 43
0.0000000001
 40
0.0
 40
0.0
 40
0.0
 40
0.6320000156507334
 40
0.6320000156507334
 40
0.6320000156507334
 10
132.0925609089761
 20
59.15929359499901
 30
0.0
 10
132.0924589683841
 20
58.8432936036165
 30
0.0
 10
132.0923570277921
 20
58.52729361223399
 30
0.0
  0
SPLINE
  5
10B
330
1F
100
AcDbEntity
  8
MAKE2D_VISIBLE_LINES_-_TAN
100
AcDbSpline
210
0.0
220
0.0
230
1.0
 70
    24
 71
     2
 72
     6
 73
     3
 74
     0
 42
0.0000000001
 43
0.0000000001
 40
0.0
 40
0.0
 40
0.0
 40
0.6320000903387164
 40
0.6320000903387164
 40
0.6320000903387164
 10
102.2958704207
 20
58.52729351297947
 30
0.0
 10
102.2958194503939
 20
58.84329355403811
 30
0.0
 10
102.2957684800878
 20
59.15929359509676
 30
0.0
  0
SPLINE
  5
10C
330
1F
100
AcDbEntity
  8
MAKE2D_VISIBLE_LINES
100
AcDbSpline
210
0.0
220
0.0
230
1.0
 70
     8
 71
     3
 72
    18
 73
    14
 74
     0
 42
0.0000000001
 43
0.0000000001
 40
0.0
 40
0.0
 40
0.0
 40
0.0
 40
3.943302007844133
 40
5.458522133165563
 40
7.977007910715646
 40
10.56735183108998
 40
13.15329881861599
 40
15.14564413014269
 40
17.47690730554958
 40
19.93087403540087
 40
21.05214096960067
 40
22.73044635940377
 40
30.37958212598463
 40
30.37958212598463
 40
30.37958212598463
 40
30.37958212598463
 10
102.2959226177086
 20
58.15929853044054
 30
0.0
 10
100.9814130147503
 20
58.15852701408514
 30
0.0
 10
99.1620835025833
 20
58.16434962887242
 30
0.0
 10
96.50299346651234
 20
58.12626310364072
 30
0.0
 10
94.30277951177739
 20
57.83446112986684
 30
0.0
 10
91.93668874877669
 20
56.72962795257143
 30
0.0
 10
90.27096918994202
 20
54.96259427499622
 30
0.0
 10
89.28901513750287
 20
52.85133903044913
 30
0.0
 10
88.92493387148826
 20
50.6074737494085
 30
0.0
 10
88.91716841963296
 20
48.63734506916424
 30
0.0
 10
88.90776792766874
 20
46.88644692180769
 30
0.0
 10
88.9132177967211
 20
43.40341596730042
 30
0.0
 10
88.90696455921858
 20
40.29437939368461
 30
0.0
 10
88.9091746710963
 20
37.74462885353509
 30
0.0
  0
SPLINE
  5
10D
330
1F
100
AcDbEntity
  8
MAKE2D_VISIBLE_LINES_-_TAN
100
AcDbSpline
210
0.0
220
0.0
230
1.0
 70
    12
 71
     2
 72
     6
 73
     3
 74
     0
 42
0.0000000001
 43
0.0000000001
 40
0.0
 40
0.0
 40
0.0
 40
0.4000033243676411
 40
0.4000033243676411
 40
0.4000033243676411
 10
88.90917633508053
 20
37.74462789790823
 30
0.0
 41
1.0
 10
89.10917799720093
 20
37.74463306831119
 30
0.0
 41
0.9999999999744672
 10
89.30917965937479
 20
37.74463538028292
 30
0.0
 41
1.0
  0
SPLINE
  5
10E
330
1F
100
AcDbEntity
  8
MAKE2D_VISIBLE_LINES_-_TAN
100
AcDbSpline
210
0.0
220
0.0
230
1.0
 70
    24
 71
     2
 72
     6
 73
     3
 74
     0
 42
0.0000000001
 43
0.0000000001
 40
0.0
 40
0.0
 40
0.0
 40
0.3999948553352084
 40
0.3999948553352084
 40
0.3999948553352084
 10
102.2959226181904
 20
-63.2707167315368
 30
0.0
 10
102.2959226179702
 20
-63.47071415920441
 30
0.0
 10
102.2959226177499
 20
-63.67071158687201
 30
0.0
  0
SPLINE
  5
10F
330
1F
100
AcDbEntity
  8
MAKE2D_VISIBLE_LINES
100
AcDbSpline
210
0.0
220
0.0
230
1.0
 70
    24
 71
     2
 72
     6
 73
     3
 74
     0
 42
0.0000000001
 43
0.0000000001
 40
0.0
 40
0.0
 40
0.0
 40
29.79643442775692
 40
29.79643442775692
 40
29.79643442775692
 10
102.2959653175223
 20
-63.67071158686453
 30
0.0
 10
117.1941825314005
 20
-63.6707089784552
 30
0.0
 10
132.0923997452788
 20
-63.67070637004585
 30
0.0
  0
SPLINE
  5
110
330
1F
100
AcDbEntity
  8
MAKE2D_VISIBLE_LINES_-_TAN
100
AcDbSpline
210
0.0
220
0.0
230
1.0
 70
    12
 71
     2
 72
     6
 73
     3
 74
     0
 42
0.0000000001
 43
0.0000000001
 40
0.0
 40
0.0
 40
0.0
 40
0.3999901802527318
 40
0.3999901802527318
 40
0.3999901802527318
 10
88.9091745144118
 20
-43.25603919416017
 30
0.0
 41
1.0
 10
89.10916960437217
 20
-43.25604812046916
 30
0.0
 41
0.9999999997509855
 10
89.30916469453173
 20
-43.2560481203722
 30
0.0
 41
1.0
  0
SPLINE
  5
111
330
1F
100
AcDbEntity
  8
MAKE2D_VISIBLE_LINES
100
AcDbSpline
210
0.0
220
0.0
230
1.0
 70
    24
 71
     2
 72
     6
 73
     3
 74
     0
 42
0.0000000001
 43
0.0000000001
 40
0.0
 40
0.0
 40
0.0
 40
81.00066564812957
 40
81.00066564812957
 40
81.00066564812957
 10
88.90917467110702
 20
37.7446278937399
 30
0.0
 10
88.9091745927631
 20
-2.755704930324882
 30
0.0
 10
88.90917451441918
 20
-43.25603775438967
 30
0.0
  0
SPLINE
  5
112
330
1F
100
AcDbEntity
  8
MAKE2D_VISIBLE_LINES
100
AcDbSpline
210
0.0
220
0.0
230
1.0
 70
     8
 71
     3
 72
    15
 73
    11
 74
     0
 42
0.0000000001
 43
0.0000000001
 40
0.0
 40
0.0
 40
0.0
 40
0.0
 40
3.734755662499371
 40
5.328754127752272
 40
7.756701998689342
 40
10.32146168316261
 40
12.68789647486986
 40
16.83028523782041
 40
19.05461992349781
 40
29.53072538415365
 40
29.53072538415365
 40
29.53072538415365
 40
29.53072538415365
 10
102.2960059202016
 20
-63.13066230922932
 30
0.0
 10
101.0521601970064
 20
-63.12900374291058
 30
0.0
 10
99.27272196288904
 20
-63.13508727276619
 30
0.0
 10
96.69227599700508
 20
-63.10068868622148
 30
0.0
 10
94.48973410052793
 20
-62.84244037540776
 30
0.0
 10
92.24879217058267
 20
-61.78751550756717
 30
0.0
 10
90.10993700807244
 20
-59.50725547818782
 30
0.0
 10
89.45837482443352
 20
-56.59259874756235
 30
0.0
 10
89.44879417658488
 20
-50.98383712443994
 30
0.0
 10
89.44898984674897
 20
-46.74688074069865
 30
0.0
 10
89.44917134563379
 20
-43.25603183176676
 30
0.0
  0
SPLINE
  5
113
330
1F
100
AcDbEntity
  8
MAKE2D_VISIBLE_LINES
100
AcDbSpline
210
0.0
220
0.0
230
1.0
 70
    24
 71
     2
 72
     6
 73
     3
 74
     0
 42
0.0000000001
 43
0.0000000001
 40
0.0
 40
0.0
 40
0.0
 40
81.00066824464018
 40
81.00066824464018
 40
81.00066824464018
 10
89.44917134563379
 20
-43.25603183176676
 30
0.0
 10
89.44917383974209
 20
-2.75569770944675
 30
0.0
 10
89.44917633385037
 20
37.74463641287326
 30
0.0
  0
SPLINE
  5
114
330
1F
100
AcDbEntity
  8
MAKE2D_VISIBLE_LINES
100
AcDbSpline
210
0.0
220
0.0
230
1.0
 70
    28
 71
     2
 72
     6
 73
     3
 74
     0
 42
0.0000000001
 43
0.0000000001
 40
0.559596191420682
 40
0.559596191420682
 40
0.559596191420682
 40
0.7461282552275759
 40
0.7461282552275759
 40
0.7461282552275759
 10
87.2791646945318
 20
36.7326621002114
 30
0.0
 41
0.8901650429449554
 10
87.2791646945318
 20
36.69931154321607
 30
0.0
 41
0.9267766952966369
 10
87.2791646945318
 20
36.69931154321606
 30
0.0
 41
1.0
  0
SPLINE
  5
115
330
1F
100
AcDbEntity
  8
MAKE2D_VISIBLE_LINES
100
AcDbSpline
210
0.0
220
0.0
230
1.0
 70
    28
 71
     2
 72
     6
 73
     3
 74
     0
 42
0.0000000001
 43
0.0000000001
 40
0.7461282552275759
 40
0.7461282552275759
 40
0.7461282552275759
 40
1.492256510455152
 40
1.492256510455152
 40
1.492256510455152
 10
87.2791646945318
 20
36.69931154321606
 30
0.0
 41
1.0
 10
87.2791646945318
 20
36.69931154321605
 30
0.0
 41
0.7071067811865476
 10
87.2791646945318
 20
37.17431154321605
 30
0.0
 41
1.0
  0
SPLINE
  5
116
330
1F
100
AcDbEntity
  8
MAKE2D_VISIBLE_LINES_-_TAN
100
AcDbSpline
210
0.0
220
0.0
230
1.0
 70
    24
 71
     2
 72
     6
 73
     3
 74
     0
 42
0.0000000001
 43
0.0000000001
 40
0.0
 40
0.0
 40
0.0
 40
0.1499999999999915
 40
0.1499999999999915
 40
0.1499999999999915
 10
87.42916469453179
 20
41.42429362995537
 30
0.0
 10
87.35416469453179
 20
41.42429362995537
 30
0.0
 10
87.2791646945318
 20
41.42429362995537
 30
0.0
  0
SPLINE
  5
117
330
1F
100
AcDbEntity
  8
MAKE2D_VISIBLE_LINES_-_TAN
100
AcDbSpline
210
0.0
220
0.0
230
1.0
 70
    24
 71
     2
 72
     6
 73
     3
 74
     0
 42
0.0000000001
 43
0.0000000001
 40
0.0
 40
0.0
 40
0.0
 40
0.1499999999999915
 40
0.1499999999999915
 40
0.1499999999999915
 10
87.42916469453179
 20
37.17431154321605
 30
0.0
 10
87.35416469453179
 20
37.17431154321605
 30
0.0
 10
87.2791646945318
 20
37.17431154321605
 30
0.0
  0
SPLINE
  5
118
330
1F
100
AcDbEntity
  8
MAKE2D_VISIBLE_LINES_-_TAN
100
AcDbSpline
210
0.0
220
0.0
230
1.0
 70
    24
 71
     2
 72
     6
 73
     3
 74
     0
 42
0.0000000001
 43
0.0000000001
 40
0.0
 40
0.0
 40
0.0
 40
0.099999999998084
 40
0.099999999998084
 40
0.099999999998084
 10
144.9391580434298
 20
37.7446190917475
 30
0.0
 10
144.9891580434288
 20
37.74461917203385
 30
0.0
 10
145.0391580434278
 20
37.74461925232021
 30
0.0
  0
SPLINE
  5
119
330
1F
100
AcDbEntity
  8
MAKE2D_VISIBLE_LINES_-_TAN
100
AcDbSpline
210
0.0
220
0.0
230
1.0
 70
    24
 71
     2
 72
     6
 73
     3
 74
     0
 42
0.0000000001
 43
0.0000000001
 40
0.0
 40
0.0
 40
0.0
 40
0.1002499992361333
 40
0.1002499992361333
 40
0.1002499992361333
 10
132.0923312818174
 20
57.71954362994347
 30
0.0
 10
132.0923248165855
 20
57.66941863074236
 30
0.0
 10
132.0923183513537
 20
57.61929363154124
 30
0.0
  0
SPLINE
  5
11A
330
1F
100
AcDbEntity
  8
MAKE2D_VISIBLE_LINES_-_TAN
100
AcDbSpline
210
0.0
220
0.0
230
1.0
 70
    24
 71
     2
 72
     6
 73
     3
 74
     0
 42
0.0000000001
 43
0.0000000001
 40
0.0
 40
0.0
 40
0.0
 40
0.0999751798724446
 40
0.0999751798724446
 40
0.0999751798724446
 10
145.0391513924509
 20
-43.25604858182793
 30
0.0
 10
144.9891638025147
 20
-43.25604858165853
 30
0.0
 10
144.9391762125785
 20
-43.25604858148913
 30
0.0
  0
SPLINE
  5
11B
330
1F
100
AcDbEntity
  8
MAKE2D_VISIBLE_LINES_-_TAN
100
AcDbSpline
210
0.0
220
0.0
230
1.0
 70
    24
 71
     2
 72
     6
 73
     3
 74
     0
 42
0.0000000001
 43
0.0000000001
 40
0.0
 40
0.0
 40
0.0
 40
0.1000000007929403
 40
0.1000000007929403
 40
0.1000000007929403
 10
102.2960213178751
 20
57.61929363392002
 30
0.0
 10
102.2960058945099
 20
57.66929363193769
 30
0.0
 10
102.2959904711447
 20
57.71929362995536
 30
0.0
  0
SPLINE
  5
11C
330
1F
100
AcDbEntity
  8
MAKE2D_VISIBLE_LINES_-_TAN
100
AcDbSpline
210
0.0
220
0.0
230
1.0
 70
    24
 71
     2
 72
     6
 73
     3
 74
     0
 42
0.0000000001
 43
0.0000000001
 40
0.0
 40
0.0
 40
0.0
 40
0.0954044048807816
 40
0.0954044048807816
 40
0.0954044048807816
 10
117.1941646979938
 20
-63.13530196516385
 30
0.0
 10
117.1941646979956
 20
-63.18300416760424
 30
0.0
 10
117.1941646979974
 20
-63.23070637004463
 30
0.0
  0
SPLINE
  5
11D
330
1F
100
AcDbEntity
  8
MAKE2D_VISIBLE_LINES_-_TAN
100
AcDbSpline
210
0.0
220
0.0
230
1.0
 70
    24
 71
     2
 72
     6
 73
     3
 74
     0
 42
0.0000000001
 43
0.0000000001
 40
0.0
 40
0.0
 40
0.0
 40
0.0999983372393566
 40
0.0999983372393566
 40
0.0999983372393566
 10
89.34917799661267
 20
37.74463583955882
 30
0.0
 10
89.39917716523152
 20
37.74463612621604
 30
0.0
 10
89.44917633385037
 20
37.74463641287326
 30
0.0
  0
SPLINE
  5
11E
330
1F
100
AcDbEntity
  8
MAKE2D_VISIBLE_LINES_-_TAN
100
AcDbSpline
210
0.0
220
0.0
230
1.0
 70
    24
 71
     2
 72
     6
 73
     3
 74
     0
 42
0.0000000001
 43
0.0000000001
 40
0.0
 40
0.0
 40
0.0
 40
0.099999999998068
 40
0.099999999998068
 40
0.099999999998068
 10
89.44917134563379
 20
-43.25603183176676
 30
0.0
 10
89.39917134563481
 20
-43.25603191205836
 30
0.0
 10
89.34917134563585
 20
-43.25603199234996
 30
0.0
  0
SPLINE
  5
11F
330
1F
100
AcDbEntity
  8
MAKE2D_VISIBLE_LINES
100
AcDbSpline
210
0.0
220
0.0
230
1.0
 70
    12
 71
     2
 72
     6
 73
     3
 74
     0
 42
0.0000000001
 43
0.0000000001
 40
0.0
 40
0.0
 40
0.0
 40
7.32520555476682
 40
7.32520555476682
 40
7.32520555476682
 10
113.0243347014347
 20
-58.90643991429837
 30
0.0
 41
1.0
 10
110.2789274696908
 20
-55.52070014132436
 30
0.0
 41
0.7767296810436087
 10
113.0243581643533
 20
-52.13497939394806
 30
0.0
 41
1.0
  0
SPLINE
  5
120
330
1F
100
AcDbEntity
  8
MAKE2D_VISIBLE_LINES
100
AcDbSpline
210
0.0
220
0.0
230
1.0
 70
    24
 71
     2
 72
     6
 73
     3
 74
     0
 42
0.0000000001
 43
0.0000000001
 40
0.0
 40
0.0
 40
0.0
 40
81.00066767323865
 40
81.00066767323865
 40
81.00066767323865
 10
144.9391580434298
 20
37.7446190917475
 30
0.0
 10
144.9391671280042
 20
-2.755714744870815
 30
0.0
 10
144.9391762125785
 20
-43.25604858148913
 30
0.0
  0
SPLINE
  5
121
330
1F
100
AcDbEntity
  8
MAKE2D_VISIBLE_LINES
100
AcDbSpline
210
0.0
220
0.0
230
1.0
 70
     8
 71
     3
 72
    15
 73
    11
 74
     0
 42
0.0000000001
 43
0.0000000001
 40
0.0
 40
0.0
 40
0.0
 40
0.0
 40
3.734773959295751
 40
5.328771642670502
 40
7.756718251871063
 40
10.32147674270446
 40
12.68791108667281
 40
16.83030090126056
 40
19.05463658204999
 40
29.53074687194852
 40
29.53074687194852
 40
29.53074687194852
 40
29.53074687194852
 10
132.0923183513537
 20
57.61929363154124
 30
0.0
 10
133.3361700792265
 20
57.61757826271217
 30
0.0
 10
135.1156143765974
 20
57.62369997971531
 30
0.0
 10
137.6960654301802
 20
57.58927885054817
 30
0.0
 10
139.8986069243929
 20
57.33104467797433
 30
0.0
 10
142.1395454661844
 20
56.27610902843786
 30
0.0
 10
144.2784015992831
 20
53.99585114620716
 30
0.0
 10
144.9299556922711
 20
51.08119150875439
 30
0.0
 10
144.9395391767788
 20
45.47242818468534
 30
0.0
 10
144.9393298087817
 20
41.23546947977781
 30
0.0
 10
144.9391580434298
 20
37.7446190917475
 30
0.0
  0
SPLINE
  5
122
330
1F
100
AcDbEntity
  8
MAKE2D_VISIBLE_LINES
100
AcDbSpline
210
0.0
220
0.0
230
1.0
 70
     8
 71
     3
 72
    17
 73
    13
 74
     0
 42
0.0000000001
 43
0.0000000001
 40
0.0
 40
0.0
 40
0.0
 40
0.0
 40
3.91112975751627
 40
5.417143677089187
 40
7.918628610223587
 40
13.06377025711638
 40
15.241892837637
 40
17.55526906012984
 40
19.99327547850815
 40
21.10770067292355
 40
22.77602190163787
 40
30.37955086297653
 40
30.37955086297653
 40
30.37955086297653
 40
30.37955086297653
 10
132.0924067709483
 20
-63.67070637004462
 30
0.0
 10
133.3936412565035
 20
-63.66637097361055
 30
0.0
 10
135.2063256635374
 20
-63.68371297631199
 30
0.0
 10
137.8358847425482
 20
-63.62855026686376
 30
0.0
 10
140.898410161416
 20
-63.2800257421712
 30
0.0
 10
143.7610196801033
 20
-61.31326218486009
 30
0.0
 10
145.1077853218659
 20
-58.32552190543819
 30
0.0
 10
145.4703906108109
 20
-56.04641336065518
 30
0.0
 10
145.4694031246848
 20
-54.08020223425991
 30
0.0
 10
145.4809869043524
 20
-52.34438989257747
 30
0.0
 10
145.4745668980738
 20
-48.87968917131888
 30
0.0
 10
145.4817185461935
 20
-45.79134718787658
 30
0.0
 10
145.479154717923
 20
-43.25603775440881
 30
0.0
  0
SPLINE
  5
123
330
1F
100
AcDbEntity
  8
MAKE2D_VISIBLE_LINES
100
AcDbSpline
210
0.0
220
0.0
230
1.0
 70
    12
 71
     2
 72
     8
 73
     5
 74
     0
 42
0.0000000001
 43
0.0000000001
 40
0.0
 40
0.0
 40
0.0
 40
4.218553909830027
 40
4.218553909830027
 40
8.437107819660055
 40
8.437107819660055
 40
8.437107819660055
 10
122.5642021660755
 20
-55.52071151719416
 30
0.0
 41
1.0
 10
122.564197616175
 20
-53.29582095592725
 30
0.0
 41
0.9238463527184237
 10
120.9906864400416
 20
-51.72286177393351
 30
0.0
 41
1.0
 10
119.4171752639082
 20
-50.14990259193975
 30
0.0
 41
0.9238463527184237
 10
117.1922848379943
 20
-50.15067867962623
 30
0.0
 41
1.0
  0
SPLINE
  5
124
330
1F
100
AcDbEntity
  8
MAKE2D_VISIBLE_LINES
100
AcDbSpline
210
0.0
220
0.0
230
1.0
 70
    24
 71
     2
 72
     6
 73
     3
 74
     0
 42
0.0000000001
 43
0.0000000001
 40
0.0
 40
0.0
 40
0.0
 40
0.4300000349401927
 40
0.4300000349401927
 40
0.4300000349401927
 10
127.1791646945319
 20
59.15929359501517
 30
0.0
 10
127.1791646945319
 20
59.37429361248527
 30
0.0
 10
127.1791646945319
 20
59.58929362995536
 30
0.0
  0
SPLINE
  5
125
330
1F
100
AcDbEntity
  8
MAKE2D_VISIBLE_LINES
100
AcDbSpline
210
0.0
220
0.0
230
1.0
 70
    12
 71
     2
 72
     6
 73
     3
 74
     0
 42
0.0000000001
 43
0.0000000001
 40
0.0
 40
0.0
 40
0.0
 40
8.435217667466446
 40
8.435217667466446
 40
8.435217667466446
 10
117.1941646945318
 20
-60.89073438955847
 30
0.0
 41
1.0
 10
122.5641808838151
 20
-60.89072770643942
 30
0.0
 41
0.7071086223805969
 10
122.5642021660755
 20
-55.52071151719416
 30
0.0
 41
1.0
  0
SPLINE
  5
126
330
1F
100
AcDbEntity
  8
MAKE2D_VISIBLE_LINES
100
AcDbSpline
210
0.0
220
0.0
230
1.0
 70
    12
 71
     2
 72
     6
 73
     3
 74
     0
 42
0.0000000001
 43
0.0000000001
 40
0.0
 40
0.0
 40
0.0
 40
5.284954430831509
 40
5.284954430831509
 40
5.284954430831509
 10
117.1922848379943
 20
-50.15067867962623
 30
0.0
 41
1.0
 10
114.322844055142
 20
-50.15209828245415
 30
0.0
 41
0.8854700862187664
 10
112.6938412655636
 20
-52.51430960515886
 30
0.0
 41
1.0
  0
SPLINE
  5
127
330
1F
100
AcDbEntity
  8
MAKE2D_VISIBLE_LINES
100
AcDbSpline
210
0.0
220
0.0
230
1.0
 70
    12
 71
     2
 72
     6
 73
     3
 74
     0
 42
0.0000000001
 43
0.0000000001
 40
0.0
 40
0.0
 40
0.0
 40
5.286839246770569
 40
5.286839246770569
 40
5.286839246770569
 10
112.6938357257675
 20
-58.52710646859345
 30
0.0
 41
1.0
 10
114.3235200673403
 20
-60.8903097401685
 30
0.0
 41
0.885389326821663
 10
117.1941646945318
 20
-60.89073438955847
 30
0.0
 41
1.0
  0
SPLINE
  5
128
330
1F
100
AcDbEntity
  8
MAKE2D_VISIBLE_LINES
100
AcDbSpline
210
0.0
220
0.0
230
1.0
 70
    24
 71
     2
 72
     6
 73
     3
 74
     0
 42
0.0000000001
 43
0.0000000001
 40
0.0
 40
0.0
 40
0.0
 40
0.4505094317549094
 40
0.4505094317549094
 40
0.4505094317549094
 10
136.6791646945319
 20
59.58929362995536
 30
0.0
 10
136.6791646945319
 20
59.36403891407791
 30
0.0
 10
136.6791646945319
 20
59.13878419820045
 30
0.0
  0
SPLINE
  5
129
330
1F
100
AcDbEntity
  8
MAKE2D_VISIBLE_LINES
100
AcDbSpline
210
0.0
220
0.0
230
1.0
 70
    24
 71
     2
 72
     6
 73
     3
 74
     0
 42
0.0000000001
 43
0.0000000001
 40
0.0
 40
0.0
 40
0.0
 40
0.0426787986155479
 40
0.0426787986155479
 40
0.0426787986155479
 10
96.56916469453179
 20
-63.19954297171819
 30
0.0
 10
96.56916469453179
 20
-63.17820357241041
 30
0.0
 10
96.56916469453179
 20
-63.15686417310264
 30
0.0
  0
SPLINE
  5
12A
330
1F
100
AcDbEntity
  8
MAKE2D_VISIBLE_LINES
100
AcDbSpline
210
0.0
220
0.0
230
1.0
 70
    24
 71
     2
 72
     6
 73
     3
 74
     0
 42
0.0000000001
 43
0.0000000001
 40
0.0
 40
0.0
 40
0.0
 40
0.2121320343559522
 40
0.2121320343559522
 40
0.2121320343559522
 10
136.5291646945319
 20
59.73929362995537
 30
0.0
 10
136.6041646945319
 20
59.66429362995537
 30
0.0
 10
136.6791646945319
 20
59.58929362995536
 30
0.0
  0
SPLINE
  5
12B
330
1F
100
AcDbEntity
  8
MAKE2D_VISIBLE_LINES
100
AcDbSpline
210
0.0
220
0.0
230
1.0
 70
    24
 71
     2
 72
     6
 73
     3
 74
     0
 42
0.0000000001
 43
0.0000000001
 40
0.0
 40
0.0
 40
0.0
 40
0.2121320343559723
 40
0.2121320343559723
 40
0.2121320343559723
 10
127.1791646945319
 20
59.58929362995536
 30
0.0
 10
127.2541646945319
 20
59.66429362995537
 30
0.0
 10
127.3291646945319
 20
59.73929362995537
 30
0.0
  0
SPLINE
  5
12C
330
1F
100
AcDbEntity
  8
MAKE2D_VISIBLE_LINES
100
AcDbSpline
210
0.0
220
0.0
230
1.0
 70
    24
 71
     2
 72
     6
 73
     3
 74
     0
 42
0.0000000001
 43
0.0000000001
 40
0.0
 40
0.0
 40
0.0
 40
0.4801524678665079
 40
0.4801524678665079
 40
0.4801524678665079
 10
87.42916469453179
 20
42.04929362995537
 30
0.0
 10
87.66924092846504
 20
42.04929362995537
 30
0.0
 10
87.9093171623983
 20
42.04929362995537
 30
0.0
  0
SPLINE
  5
12D
330
1F
100
AcDbEntity
  8
MAKE2D_VISIBLE_LINES
100
AcDbSpline
210
0.0
220
0.0
230
1.0
 70
    24
 71
     2
 72
     6
 73
     3
 74
     0
 42
0.0000000001
 43
0.0000000001
 40
0.0
 40
0.0
 40
0.0
 40
0.4800079010432177
 40
0.4800079010432177
 40
0.4800079010432177
 10
87.90917259557501
 20
36.54931154321605
 30
0.0
 10
87.6691686450534
 20
36.54931154321605
 30
0.0
 10
87.42916469453179
 20
36.54931154321605
 30
0.0
  0
SPLINE
  5
12E
330
1F
100
AcDbEntity
  8
MAKE2D_VISIBLE_LINES
100
AcDbSpline
210
0.0
220
0.0
230
1.0
 70
    24
 71
     2
 72
     6
 73
     3
 74
     0
 42
0.0000000001
 43
0.0000000001
 40
0.0
 40
0.0
 40
0.0
 40
0.4300079010432256
 40
0.4300079010432256
 40
0.4300079010432256
 10
87.47916469453179
 20
20.03929362995538
 30
0.0
 10
87.6941686450534
 20
20.03929362995538
 30
0.0
 10
87.90917259557501
 20
20.03929362995538
 30
0.0
  0
SPLINE
  5
12F
330
1F
100
AcDbEntity
  8
MAKE2D_VISIBLE_LINES
100
AcDbSpline
210
0.0
220
0.0
230
1.0
 70
    24
 71
     2
 72
     6
 73
     3
 74
     0
 42
0.0000000001
 43
0.0000000001
 40
0.0
 40
0.0
 40
0.0
 40
0.4300079010432519
 40
0.4300079010432519
 40
0.4300079010432519
 10
87.47916469453179
 20
30.32929362995537
 30
0.0
 10
87.69416864505342
 20
30.32929362995537
 30
0.0
 10
87.90917259557504
 20
30.32929362995537
 30
0.0
  0
SPLINE
  5
130
330
1F
100
AcDbEntity
  8
MAKE2D_VISIBLE_LINES
100
AcDbSpline
210
0.0
220
0.0
230
1.0
 70
    24
 71
     2
 72
     6
 73
     3
 74
     0
 42
0.0000000001
 43
0.0000000001
 40
0.0
 40
0.0
 40
0.0
 40
0.2121320343559623
 40
0.2121320343559623
 40
0.2121320343559623
 10
87.47916469453179
 20
26.12929362995536
 30
0.0
 10
87.4041646945318
 20
26.20429362995536
 30
0.0
 10
87.3291646945318
 20
26.27929362995536
 30
0.0
  0
SPLINE
  5
131
330
1F
100
AcDbEntity
  8
MAKE2D_VISIBLE_LINES
100
AcDbSpline
210
0.0
220
0.0
230
1.0
 70
    24
 71
     2
 72
     6
 73
     3
 74
     0
 42
0.0000000001
 43
0.0000000001
 40
0.0
 40
0.0
 40
0.0
 40
0.2121320343559623
 40
0.2121320343559623
 40
0.2121320343559623
 10
87.47916469453179
 20
15.83929362995536
 30
0.0
 10
87.4041646945318
 20
15.91429362995537
 30
0.0
 10
87.3291646945318
 20
15.98929362995537
 30
0.0
  0
SPLINE
  5
132
330
1F
100
AcDbEntity
  8
MAKE2D_VISIBLE_LINES
100
AcDbSpline
210
0.0
220
0.0
230
1.0
 70
    24
 71
     2
 72
     6
 73
     3
 74
     0
 42
0.0000000001
 43
0.0000000001
 40
0.0
 40
0.0
 40
0.0
 40
0.1811025540826123
 40
0.1811025540826123
 40
0.1811025540826123
 10
87.27916469453179
 20
41.89929362995537
 30
0.0
 10
87.34319411657279
 20
41.96332305199638
 30
0.0
 10
87.4072235386138
 20
42.02735247403739
 30
0.0
  0
SPLINE
  5
133
330
1F
100
AcDbEntity
  8
MAKE2D_VISIBLE_LINES
100
AcDbSpline
210
0.0
220
0.0
230
1.0
 70
    24
 71
     2
 72
     6
 73
     3
 74
     0
 42
0.0000000001
 43
0.0000000001
 40
0.0
 40
0.0
 40
0.0
 40
0.1811025540825834
 40
0.1811025540825834
 40
0.1811025540825834
 10
87.40722353861379
 20
36.57125269913406
 30
0.0
 10
87.34319411657279
 20
36.63528212117506
 30
0.0
 10
87.27916469453179
 20
36.69931154321606
 30
0.0
  0
SPLINE
  5
134
330
1F
100
AcDbEntity
  8
MAKE2D_VISIBLE_LINES
100
AcDbSpline
210
0.0
220
0.0
230
1.0
 70
    24
 71
     2
 72
     6
 73
     3
 74
     0
 42
0.0000000001
 43
0.0000000001
 40
0.0
 40
0.0
 40
0.0
 40
8.5
 40
8.5
 40
8.5
 10
121.4491646945318
 20
49.55929362995536
 30
0.0
 10
117.1991646945318
 20
49.55929362995536
 30
0.0
 10
112.9491646945318
 20
49.55929362995536
 30
0.0
  0
SPLINE
  5
135
330
1F
100
AcDbEntity
  8
MAKE2D_VISIBLE_LINES
100
AcDbSpline
210
0.0
220
0.0
230
1.0
 70
    12
 71
     2
 72
     8
 73
     5
 74
     0
 42
0.0000000001
 43
0.0000000001
 40
0.0
 40
0.0
 40
0.0
 40
1.806415775814149
 40
1.806415775814149
 40
3.612831551628265
 40
3.612831551628265
 40
3.612831551628265
 10
112.9491646945318
 20
49.55929362995536
 30
0.0
 41
1.0
 10
111.7991646945318
 20
49.55929362995537
 30
0.0
 41
0.7071067811865311
 10
111.7991646945318
 20
48.40929362995536
 30
0.0
 41
1.0
 10
111.7991646945319
 20
47.2592936299554
 30
0.0
 41
0.7071067811865585
 10
112.9491646945318
 20
47.25929362995538
 30
0.0
 41
1.0
  0
SPLINE
  5
136
330
1F
100
AcDbEntity
  8
MAKE2D_VISIBLE_LINES_-_TAN
100
AcDbSpline
210
0.0
220
0.0
230
1.0
 70
    24
 71
     2
 72
     6
 73
     3
 74
     0
 42
0.0000000001
 43
0.0000000001
 40
0.0
 40
0.0
 40
0.0
 40
51.70000000000002
 40
51.70000000000002
 40
51.70000000000002
 10
143.0441646945318
 20
42.43929362995536
 30
0.0
 10
117.1941646945318
 20
42.43929362995536
 30
0.0
 10
91.34416469453178
 20
42.43929362995536
 30
0.0
  0
SPLINE
  5
137
330
1F
100
AcDbEntity
  8
MAKE2D_VISIBLE_LINES_-_TAN
100
AcDbSpline
210
0.0
220
0.0
230
1.0
 70
    24
 71
     2
 72
     6
 73
     3
 74
     0
 42
0.0000000001
 43
0.0000000001
 40
0.0
 40
0.0
 40
0.0
 40
51.7000000000001
 40
51.7000000000001
 40
51.7000000000001
 10
91.34416469453178
 20
-47.95070637004463
 30
0.0
 10
117.1941646945318
 20
-47.95070637004463
 30
0.0
 10
143.0441646945319
 20
-47.95070637004463
 30
0.0
  0
SPLINE
  5
138
330
1F
100
AcDbEntity
  8
MAKE2D_VISIBLE_LINES
100
AcDbSpline
210
0.0
220
0.0
230
1.0
 70
    12
 71
     2
 72
     8
 73
     5
 74
     0
 42
0.0000000001
 43
0.0000000001
 40
0.0
 40
0.0
 40
0.0
 40
1.649336143134626
 40
1.649336143134626
 40
3.298672286269289
 40
3.298672286269289
 40
3.298672286269289
 10
117.1991646945319
 20
52.03929362995535
 30
0.0
 41
1.0
 10
118.2491646945318
 20
52.03929362995539
 30
0.0
 41
0.7071067811865739
 10
118.2491646945319
 20
53.08929362995536
 30
0.0
 41
1.0
 10
118.2491646945319
 20
54.1392936299554
 30
0.0
 41
0.7071067811865236
 10
117.1991646945319
 20
54.13929362995538
 30
0.0
 41
1.0
  0
SPLINE
  5
139
330
1F
100
AcDbEntity
  8
MAKE2D_VISIBLE_LINES_-_TAN
100
AcDbSpline
210
0.0
220
0.0
230
1.0
 70
    12
 71
     2
 72
     6
 73
     3
 74
     0
 42
0.0000000001
 43
0.0000000001
 40
0.0
 40
0.0
 40
0.0
 40
1.321265665288996
 40
1.321265665288996
 40
1.321265665288996
 10
110.0322808617877
 20
48.40929362995536
 30
0.0
 41
1.0
 10
110.000041848814
 20
49.22705461698172
 30
0.0
 41
0.7344129206733709
 10
109.1822808617876
 20
49.25929362995538
 30
0.0
 41
1.0
  0
SPLINE
  5
13A
330
1F
100
AcDbEntity
  8
MAKE2D_VISIBLE_LINES_-_TAN
100
AcDbSpline
210
0.0
220
0.0
230
1.0
 70
    12
 71
     2
 72
     6
 73
     3
 74
     0
 42
0.0000000001
 43
0.0000000001
 40
1.321265665288996
 40
1.321265665288996
 40
1.321265665288996
 40
2.64256780027771
 40
2.64256780027771
 40
2.64256780027771
 10
109.1822808617876
 20
49.25929362995538
 30
0.0
 41
1.0
 10
108.3644357067658
 20
49.22713878497723
 30
0.0
 41
0.7343404269146077
 10
108.3322808617877
 20
48.40929362995536
 30
0.0
 41
1.0
  0
SPLINE
  5
13B
330
1F
100
AcDbEntity
  8
MAKE2D_VISIBLE_LINES_-_TAN
100
AcDbSpline
210
0.0
220
0.0
230
1.0
 70
    12
 71
     2
 72
     6
 73
     3
 74
     0
 42
0.0000000001
 43
0.0000000001
 40
0.0
 40
0.0
 40
0.0
 40
1.321302134986063
 40
1.321302134986063
 40
1.321302134986063
 10
108.3322808617877
 20
48.40929362995536
 30
0.0
 41
1.0
 10
108.3644357067719
 20
47.59144847493958
 30
0.0
 41
0.7343404269198629
 10
109.1822808617876
 20
47.55929362995536
 30
0.0
 41
1.0
  0
SPLINE
  5
13C
330
1F
100
AcDbEntity
  8
MAKE2D_VISIBLE_LINES_-_TAN
100
AcDbSpline
210
0.0
220
0.0
230
1.0
 70
    12
 71
     2
 72
     6
 73
     3
 74
     0
 42
0.0000000001
 43
0.0000000001
 40
1.321302134986063
 40
1.321302134986063
 40
1.321302134986063
 40
2.64352260822222
 40
2.64352260822222
 40
2.64352260822222
 10
109.1822808617876
 20
47.55929362995536
 30
0.0
 41
1.0
 10
110.0022458751504
 20
47.58932861659259
 30
0.0
 41
0.7325165624563423
 10
110.0322808617876
 20
48.40929362995536
 30
0.0
 41
1.0
  0
SPLINE
  5
13D
330
1F
100
AcDbEntity
  8
MAKE2D_VISIBLE_LINES
100
AcDbSpline
210
0.0
220
0.0
230
1.0
 70
     8
 71
     3
 72
    15
 73
    11
 74
     0
 42
0.0000000001
 43
0.0000000001
 40
0.0
 40
0.0
 40
0.0
 40
0.0
 40
10.5693419760585
 40
12.81110782489901
 40
14.95585118354994
 40
16.98004529420516
 40
21.75639268545987
 40
24.14200092753909
 40
25.82092945436642
 40
29.53318548599537
 40
29.53318548599537
 40
29.53318548599537
 40
29.53318548599537
 10
89.44917633385037
 20
37.74463641287326
 30
0.0
 10
89.45421166413685
 20
41.26881740637147
 30
0.0
 10
89.43935987726269
 20
45.53640648130684
 30
0.0
 10
89.46817788181465
 20
50.52446810876326
 30
0.0
 10
89.7987713391641
 20
52.64334874590858
 30
0.0
 10
91.04088560021026
 20
55.41476628062482
 30
0.0
 10
93.71381086598315
 20
57.26060077205615
 30
0.0
 10
96.67472948012995
 20
57.58792308498671
 30
0.0
 10
99.25884420742914
 20
57.62501988753692
 30
0.0
 10
101.0597805212934
 20
57.61673351810859
 30
0.0
 10
102.2960213178751
 20
57.61929363392001
 30
0.0
  0
SPLINE
  5
13E
330
1F
100
AcDbEntity
  8
MAKE2D_VISIBLE_LINES
100
AcDbSpline
210
0.0
220
0.0
230
1.0
 70
    24
 71
     2
 72
     6
 73
     3
 74
     0
 42
0.0000000001
 43
0.0000000001
 40
0.0
 40
0.0
 40
0.0
 40
8.5
 40
8.5
 40
8.5
 10
112.9491646945318
 20
47.25929362995538
 30
0.0
 10
117.1991646945318
 20
47.25929362995538
 30
0.0
 10
121.4491646945318
 20
47.25929362995538
 30
0.0
  0
SPLINE
  5
13F
330
1F
100
AcDbEntity
  8
MAKE2D_VISIBLE_LINES
100
AcDbSpline
210
0.0
220
0.0
230
1.0
 70
    12
 71
     2
 72
     8
 73
     5
 74
     0
 42
0.0000000001
 43
0.0000000001
 40
0.0
 40
0.0
 40
0.0
 40
1.806415775814118
 40
1.806415775814118
 40
3.61283155162825
 40
3.61283155162825
 40
3.61283155162825
 10
121.4491646945318
 20
47.25929362995538
 30
0.0
 41
1.0
 10
122.5991646945318
 20
47.25929362995535
 30
0.0
 41
0.7071067811865476
 10
122.5991646945319
 20
48.40929362995536
 30
0.0
 41
1.0
 10
122.5991646945318
 20
49.55929362995536
 30
0.0
 41
0.7071067811865431
 10
121.4491646945318
 20
49.55929362995536
 30
0.0
 41
1.0
  0
SPLINE
  5
140
330
1F
100
AcDbEntity
  8
MAKE2D_VISIBLE_LINES_-_TAN
100
AcDbSpline
210
0.0
220
0.0
230
1.0
 70
    24
 71
     2
 72
     6
 73
     3
 74
     0
 42
0.0000000001
 43
0.0000000001
 40
0.0
 40
0.0
 40
0.0
 40
90.38999999999999
 40
90.38999999999999
 40
90.38999999999999
 10
91.34416469453178
 20
42.43929362995536
 30
0.0
 10
91.34416469453178
 20
-2.755706370044635
 30
0.0
 10
91.34416469453178
 20
-47.95070637004463
 30
0.0
  0
SPLINE
  5
141
330
1F
100
AcDbEntity
  8
MAKE2D_VISIBLE_LINES_-_TAN
100
AcDbSpline
210
0.0
220
0.0
230
1.0
 70
    24
 71
     2
 72
     6
 73
     3
 74
     0
 42
0.0000000001
 43
0.0000000001
 40
0.0
 40
0.0
 40
0.0
 40
90.38999999999999
 40
90.38999999999999
 40
90.38999999999999
 10
143.0441646945319
 20
-47.95070637004463
 30
0.0
 10
143.0441646945318
 20
-2.755706370044635
 30
0.0
 10
143.0441646945318
 20
42.43929362995536
 30
0.0
  0
SPLINE
  5
142
330
1F
100
AcDbEntity
  8
MAKE2D_VISIBLE_LINES
100
AcDbSpline
210
0.0
220
0.0
230
1.0
 70
    12
 71
     2
 72
     8
 73
     5
 74
     0
 42
0.0000000001
 43
0.0000000001
 40
0.0
 40
0.0
 40
0.0
 40
1.649336143134661
 40
1.649336143134661
 40
3.298672286269296
 40
3.298672286269296
 40
3.298672286269296
 10
117.1991646945319
 20
54.13929362995538
 30
0.0
 41
1.0
 10
116.1491646945318
 20
54.13929362995542
 30
0.0
 41
0.7071067811865093
 10
116.1491646945319
 20
53.08929362995536
 30
0.0
 41
1.0
 10
116.1491646945319
 20
52.03929362995541
 30
0.0
 41
0.7071067811865727
 10
117.1991646945319
 20
52.03929362995535
 30
0.0
 41
1.0
  0
SPLINE
  5
143
330
1F
100
AcDbEntity
  8
MAKE2D_VISIBLE_LINES
100
AcDbSpline
210
0.0
220
0.0
230
1.0
 70
    12
 71
     2
 72
     8
 73
     5
 74
     0
 42
0.0000000001
 43
0.0000000001
 40
0.0
 40
0.0
 40
0.0
 40
8.56088965718044
 40
8.56088965718044
 40
17.12177931436088
 40
17.12177931436088
 40
17.12177931436088
 10
122.6442117365168
 20
-55.52070706328033
 30
0.0
 41
1.0
 10
122.6442029178198
 20
-50.07067881052989
 30
0.0
 41
0.7071073831781403
 10
117.1941746650623
 20
-50.07067834951783
 30
0.0
 41
1.0
 10
111.7441464123047
 20
-50.07067788850578
 30
0.0
 41
0.7071073831781403
 10
111.7441366715837
 20
-55.52070614125465
 30
0.0
 41
1.0
  0
SPLINE
  5
144
330
1F
100
AcDbEntity
  8
MAKE2D_VISIBLE_LINES
100
AcDbSpline
210
0.0
220
0.0
230
1.0
 70
    12
 71
     2
 72
     8
 73
     5
 74
     0
 42
0.0000000001
 43
0.0000000001
 40
0.0
 40
0.0
 40
0.0
 40
8.56088919172983
 40
8.56088919172983
 40
17.12177838345966
 40
17.12177838345966
 40
17.12177838345966
 10
111.7441366715837
 20
-55.52070614125465
 30
0.0
 41
1.0
 10
111.7441459557309
 20
-60.97073392855406
 30
0.0
 41
0.7071074133727849
 10
117.1941737430382
 20
-60.97073438956608
 30
0.0
 41
1.0
 10
122.6442015303455
 20
-60.97073485057809
 30
0.0
 41
0.7071074133727849
 10
122.6442117365168
 20
-55.52070706328033
 30
0.0
 41
1.0
  0
SPLINE
  5
145
330
1F
100
AcDbEntity
  8
MAKE2D_VISIBLE_LINES
100
AcDbSpline
210
0.0
220
0.0
230
1.0
 70
    24
 71
     2
 72
     6
 73
     3
 74
     0
 42
0.0000000001
 43
0.0000000001
 40
0.0
 40
0.0
 40
0.0
 40
29.79663333463537
 40
29.79663333463537
 40
29.79663333463537
 10
132.0924018147232
 20
-64.67070633518601
 30
0.0
 10
117.1940851474055
 20
-64.67070633513714
 30
0.0
 10
102.2957684800878
 20
-64.67070633508827
 30
0.0
  0
SPLINE
  5
146
330
1F
100
AcDbEntity
  8
MAKE2D_VISIBLE_LINES
100
AcDbSpline
210
0.0
220
0.0
230
1.0
 70
    12
 71
     2
 72
    10
 73
     7
 74
     0
 42
0.0000000001
 43
0.0000000001
 40
0.0
 40
0.0
 40
0.0
 40
0.9271671138776
 40
0.9271671138776
 40
1.390748637254752
 40
1.390748637254752
 40
1.390779963987939
 40
1.390779963987939
 40
1.390779963987939
 10
135.8019178842922
 20
57.71241486434893
 30
0.0
 41
1.0
 10
136.265498138973
 20
57.70873168929074
 30
0.0
 41
0.9999633443378252
 10
136.7289473542378
 20
57.69711088127893
 30
0.0
 41
1.0
 10
136.9606724999155
 20
57.69137583741305
 30
0.0
 41
0.9999654286399514
 10
137.1922702298647
 20
57.6817880665656
 30
0.0
 41
1.0
 10
137.192285879143
 20
57.68178740238294
 30
0.0
 41
0.9999999999997503
 10
137.1923015284205
 20
57.68178673817818
 30
0.0
 41
1.0
  0
SPLINE
  5
147
330
1F
100
AcDbEntity
  8
MAKE2D_VISIBLE_LINES
100
AcDbSpline
210
0.0
220
0.0
230
1.0
 70
    12
 71
     2
 72
    12
 73
     9
 74
     0
 42
0.0000000001
 43
0.0000000001
 40
0.0
 40
0.0
 40
0.0
 40
0.0000238672219139
 40
0.0000238672219139
 40
0.30941446644814
 40
0.30941446644814
 40
0.9317455919699711
 40
0.9317455919699711
 40
1.856733250164672
 40
1.856733250164672
 40
1.856733250164672
 10
140.383188651442
 20
57.14211968730807
 30
0.0
 41
1.0
 10
140.3831998852656
 20
57.14211566086081
 30
0.0
 41
0.9999999999987103
 10
140.3832111190763
 20
57.1421116343775
 30
0.0
 41
1.0
 10
140.5288666331553
 20
57.08993488264059
 30
0.0
 41
0.999771078792655
 10
140.6721565486084
 20
57.0315744308526
 30
0.0
 41
1.0
 10
140.9605335679499
 20
56.91413402515401
 30
0.0
 41
0.9989978366450464
 10
141.2372527883516
 20
56.77137539236702
 30
0.0
 41
1.0
 10
141.6489911924045
 20
56.55911886655346
 30
0.0
 41
0.9976202783195484
 10
142.0276154381664
 20
56.29223869373494
 30
0.0
 41
1.0
  0
SPLINE
  5
148
330
1F
100
AcDbEntity
  8
MAKE2D_VISIBLE_LINES
100
AcDbSpline
210
0.0
220
0.0
230
1.0
 70
    24
 71
     2
 72
     6
 73
     3
 74
     0
 42
0.0000000001
 43
0.0000000001
 40
0.0
 40
0.0
 40
0.0
 40
29.79629703347864
 40
29.79629703347864
 40
29.79629703347864
 10
102.2960213178751
 20
57.61929363392002
 30
0.0
 10
117.1941698346144
 20
57.61929363273063
 30
0.0
 10
132.0923183513537
 20
57.61929363154124
 30
0.0
  0
SPLINE
  5
149
330
1F
100
AcDbEntity
  8
MAKE2D_VISIBLE_LINES
100
AcDbSpline
210
0.0
220
0.0
230
1.0
 70
    12
 71
     2
 72
    82
 73
    79
 74
     0
 42
0.0000000001
 43
0.0000000001
 40
0.0
 40
0.0
 40
0.0
 40
2.114964810251428
 40
2.114964810251428
 40
4.229929700619815
 40
4.229929700619815
 40
5.023041484508327
 40
5.023041484508327
 40
5.816153281479155
 40
5.816153281479155
 40
6.609265089331772
 40
6.609265089331772
 40
7.402376931360986
 40
7.402376931360986
 40
8.327674011894178
 40
8.327674011894178
 40
9.252971151599036
 40
9.252971151599036
 40
10.17826195067858
 40
10.17826195067858
 40
11.10321323196268
 40
11.10321323196268
 40
11.56531784301741
 40
11.56531784301741
 40
12.02700802518496
 40
12.02700802518496
 40
12.94914333732395
 40
12.94914333732395
 40
13.87147487395
 40
13.87147487395
 40
14.33455193095321
 40
14.33455193095321
 40
14.80068264373912
 40
14.80068264373912
 40
15.27016631445886
 40
15.27016631445886
 40
15.73707136531757
 40
15.73707136531757
 40
16.66723332035631
 40
16.66723332035631
 40
17.6046473265675
 40
17.6046473265675
 40
18.53542246065205
 40
18.53542246065205
 40
19.46794546319196
 40
19.46794546319196
 40
20.40438678019583
 40
20.40438678019583
 40
21.33572578157404
 40
21.33572578157404
 40
22.2728604202085
 40
22.2728604202085
 40
23.20102976711716
 40
23.20102976711716
 40
23.66340972584289
 40
23.66340972584289
 40
24.12574428463639
 40
24.12574428463639
 40
24.58840400971652
 40
24.58840400971652
 40
25.05154172611904
 40
25.05154172611904
 40
25.97888760460774
 40
25.97888760460774
 40
26.90710803006995
 40
26.90710803006995
 40
27.37124791206049
 40
27.37124791206049
 40
27.83538758013034
 40
27.83538758013034
 40
28.10061024488436
 40
28.10061024488436
 40
28.36583298668227
 40
28.36583298668227
 40
28.89627887220249
 40
28.89627887220249
 40
29.29411305188024
 40
29.29411305188024
 40
29.69194718954408
 40
29.69194718954408
 40
29.69194718954408
 10
145.0391513924535
 20
-43.25604858108233
 30
0.0
 41
1.0
 10
145.0390789068123
 20
-44.31353098383654
 30
0.0
 41
0.9999999998400235
 10
145.038968590303
 20
-45.37101338332093
 30
0.0
 41
1.0
 10
145.0388688115822
 20
-46.42849582880287
 30
0.0
 41
0.9999999929005091
 10
145.03902105098
 20
-47.48597826803363
 30
0.0
 41
1.0
 10
145.0389915650416
 20
-47.88253416563533
 30
0.0
 41
0.9999999744537683
 10
145.0387828069607
 20
-48.27909000938523
 30
0.0
 41
1.0
 10
145.0386005117407
 20
-48.67564587594129
 30
0.0
 41
0.9999999622846055
 10
145.0386360420283
 20
-49.07220178280583
 30
0.0
 41
1.0
 10
145.0387163722735
 20
-49.46875769607968
 30
0.0
 41
0.9999999338663704
 10
145.0385082591234
 20
-49.86531356288073
 30
0.0
 41
1.0
 10
145.0382445965411
 20
-50.26186939731354
 30
0.0
 41
0.999999995951297
 10
145.0379095653431
 20
-50.65842517787253
 30
0.0
 41
1.0
 10
145.0376430430926
 20
-51.12107364308943
 30
0.0
 41
0.999999994425749
 10
145.0374742196802
 20
-51.58372215427293
 30
0.0
 41
1.0
 10
145.0372959558771
 20
-52.04637070408077
 30
0.0
 41
0.9999999536398878
 10
145.0368359391953
 20
-52.50901905953223
 30
0.0
 41
1.0
 10
145.0364917383324
 20
-52.97166454552261
 30
0.0
 41
0.9999993045740222
 10
145.0350563031431
 20
-53.43430793270903
 30
0.0
 41
1.0
 10
145.0337512029426
 20
-53.89678442027391
 30
0.0
 41
0.9999912804673113
 10
145.0285835768393
 20
-54.35923387748772
 30
0.0
 41
1.0
 10
145.0258596891621
 20
-54.59027223007409
 30
0.0
 41
0.9999863441967334
 10
145.0207211551764
 20
-54.82126949282492
 30
0.0
 41
1.0
 10
145.015585763974
 20
-55.05206229245434
 30
0.0
 41
0.99996858053516
 10
145.0067921262234
 20
-55.28274467266293
 30
0.0
 41
1.0
 10
144.9899563326493
 20
-55.74359812642445
 30
0.0
 41
0.9996968280150368
 10
144.9504533936997
 20
-56.20306397673713
 30
0.0
 41
1.0
 10
144.9107583890944
 20
-56.66275170281456
 30
0.0
 41
0.9992438349599929
 10
144.8354638873543
 20
-57.11796509992033
 30
0.0
 41
1.0
 10
144.7973202635088
 20
-57.34638839730019
 30
0.0
 41
0.9996916652141374
 10
144.7478832537108
 20
-57.57263631638052
 30
0.0
 41
1.0
 10
144.6980484797676
 20
-57.80037051656484
 30
0.0
 41
0.9996286236303127
 10
144.6358803802696
 20
-58.02505139699832
 30
0.0
 41
1.0
 10
144.5733117765795
 20
-58.25137400602173
 30
0.0
 41
0.9995507794565359
 10
144.4972956031287
 20
-58.47354127385562
 30
0.0
 41
1.0
 10
144.4216264877992
 20
-58.69447443277091
 30
0.0
 41
0.9994884957827527
 10
144.3319883140484
 20
-58.91011829085562
 30
0.0
 41
1.0
 10
144.1535086198051
 20
-59.34035965419084
 30
0.0
 41
0.9977103182109118
 10
143.9185985712141
 20
-59.74257837709262
 30
0.0
 41
1.0
 10
143.6816512384176
 20
-60.14788588065722
 30
0.0
 41
0.9975092211025206
 10
143.3900264237172
 20
-60.51581682311272
 30
0.0
 41
1.0
 10
143.100455380036
 20
-60.88114074321027
 30
0.0
 41
0.9974894629207509
 10
142.7621776352431
 20
-61.20189161742882
 30
0.0
 41
1.0
 10
142.4232309866109
 20
-61.52321375886941
 30
0.0
 41
0.9974796645032491
 10
142.0422144923537
 20
-61.79332332979002
 30
0.0
 41
1.0
 10
141.6596168901749
 20
-62.06455280416037
 30
0.0
 41
0.9975590870987634
 10
141.2429642311513
 20
-62.27983613999652
 30
0.0
 41
1.0
 10
140.8286074078125
 20
-62.49382700250247
 30
0.0
 41
0.9978080108466939
 10
140.3896199171828
 20
-62.65122347436292
 30
0.0
 41
1.0
 10
139.9479328234325
 20
-62.80925091474041
 30
0.0
 41
0.9982793669414626
 10
139.4907823967465
 20
-62.91448231727182
 30
0.0
 41
1.0
 10
139.0381448864873
 20
-63.01848904690744
 30
0.0
 41
0.9988750126478542
 10
138.5776900595728
 20
-63.07914766438422
 30
0.0
 41
1.0
 10
138.348488346672
 20
-63.10961078660106
 30
0.0
 41
0.9998229490505274
 10
138.1183027092296
 20
-63.13142819540792
 30
0.0
 41
1.0
 10
137.888150232505
 20
-63.15324453047829
 30
0.0
 41
0.9998904880667738
 10
137.6574529166886
 20
-63.16823997957182
 30
0.0
 41
1.0
 10
137.4266038491621
 20
-63.1833036146259
 30
0.0
 41
0.9999341375553644
 10
137.1954698501458
 20
-63.19306474046452
 30
0.0
 41
1.0
 10
136.9640952939638
 20
-63.20267942352824
 30
0.0
 41
0.9999651577975622
 10
136.7325924692715
 20
-63.20843003552112
 30
0.0
 41
1.0
 10
136.269054816774
 20
-63.22009144268614
 30
0.0
 41
0.9999632012634895
 10
135.8053853186035
 20
-63.22379821570452
 30
0.0
 41
1.0
 10
135.3412860555958
 20
-63.2271252204478
 30
0.0
 41
0.9999968477472925
 10
134.8771759370753
 20
-63.22812159970453
 30
0.0
 41
1.0
 10
134.6451069275577
 20
-63.2287899831034
 30
0.0
 41
0.9999997994490337
 10
134.4130372575976
 20
-63.22916441532435
 30
0.0
 41
1.0
 10
134.1809677260395
 20
-63.22954009653829
 30
0.0
 41
0.9999999896251612
 10
133.9488980958802
 20
-63.22984891967392
 30
0.0
 41
1.0
 10
133.8162868807677
 20
-63.23002539003503
 30
0.0
 41
0.9999999982683514
 10
133.6836756873442
 20
-63.23021746867726
 30
0.0
 41
1.0
 10
133.5510644063843
 20
-63.230384972992
 30
0.0
 41
0.9999998207146179
 10
133.4184530199196
 20
-63.23039365988742
 30
0.0
 41
1.0
 10
133.1532300748333
 20
-63.23044455970022
 30
0.0
 41
0.9999999592209056
 10
132.8880071439369
 20
-63.23034397268309
 30
0.0
 41
1.0
 10
132.6890900478004
 20
-63.23036007403678
 30
0.0
 41
0.9999999475969727
 10
132.4901730037846
 20
-63.2305049692779
 30
0.0
 41
1.0
 10
132.2912559726961
 20
-63.2306289763621
 30
0.0
 41
0.9999999931358367
 10
132.0923389180099
 20
-63.23070637004459
 30
0.0
 41
1.0
  0
SPLINE
  5
14A
330
1F
100
AcDbEntity
  8
MAKE2D_VISIBLE_LINES
100
AcDbSpline
210
0.0
220
0.0
230
1.0
 70
    24
 71
     2
 72
     6
 73
     3
 74
     0
 42
0.0000000001
 43
0.0000000001
 40
0.0
 40
0.0
 40
0.0
 40
29.79634844686524
 40
29.79634844686524
 40
29.79634844686524
 10
132.0923389180099
 20
-63.23070637004462
 30
0.0
 10
117.1941646945773
 20
-63.23070637004462
 30
0.0
 10
102.2959904711447
 20
-63.23070637004462
 30
0.0
  0
SPLINE
  5
14B
330
1F
100
AcDbEntity
  8
MAKE2D_VISIBLE_LINES
100
AcDbSpline
210
0.0
220
0.0
230
1.0
 70
     8
 71
     3
 72
    14
 73
    10
 74
     0
 42
0.0000000001
 43
0.0000000001
 40
0.0
 40
0.0
 40
0.0
 40
0.0
 40
3.049718993001832
 40
5.366338209631062
 40
9.92701308820005
 40
14.16497177456568
 40
16.3629072674901
 40
17.73352496253954
 40
21.23898623904739
 40
21.23898623904739
 40
21.23898623904739
 40
21.23898623904739
 10
87.91605028294751
 20
-53.97070641177
 30
0.0
 10
87.92164960538128
 20
-54.98532602603157
 30
0.0
 10
87.95789113977128
 20
-56.78309380756119
 30
0.0
 10
88.70722520719845
 20
-60.02423245969678
 30
0.0
 10
91.01370754865033
 20
-63.13030814065682
 30
0.0
 10
94.54714795837758
 20
-64.49142394294647
 30
0.0
 10
97.1426818876246
 20
-64.64392889036056
 30
0.0
 10
99.5032821388427
 20
-64.67952660807363
 30
0.0
 10
101.1264686039575
 20
-64.66586899339708
 30
0.0
 10
102.2957684800879
 20
-64.67070633508827
 30
0.0
  0
SPLINE
  5
14C
330
1F
100
AcDbEntity
  8
MAKE2D_VISIBLE_LINES_-_TAN
100
AcDbSpline
210
0.0
220
0.0
230
1.0
 70
    24
 71
     2
 72
     6
 73
     3
 74
     0
 42
0.0000000001
 43
0.0000000001
 40
0.0
 40
0.0
 40
0.0
 40
0.6320000156507048
 40
0.6320000156507048
 40
0.6320000156507048
 10
102.2957684800878
 20
-64.67070633508827
 30
0.0
 10
102.2958704206797
 20
-64.35470634370577
 30
0.0
 10
102.2959723612715
 20
-64.03870635232327
 30
0.0
  0
SPLINE
  5
14D
330
1F
100
AcDbEntity
  8
MAKE2D_VISIBLE_LINES
100
AcDbSpline
210
0.0
220
0.0
230
1.0
 70
     8
 71
     3
 72
    18
 73
    14
 74
     0
 42
0.0000000001
 43
0.0000000001
 40
0.0
 40
0.0
 40
0.0
 40
0.0
 40
7.649148968617104
 40
9.327457250945695
 40
10.44872616757584
 40
12.90269752088354
 40
15.23396591363257
 40
17.22631479351246
 40
19.81226612745512
 40
22.40261425430348
 40
24.92110284518856
 40
26.43632505688355
 40
30.37958214270699
 40
30.37958214270699
 40
30.37958214270699
 40
30.37958214270699
 10
145.4791547179673
 20
37.74462885353509
 30
0.0
 10
145.4813648591381
 20
40.29438379690507
 30
0.0
 10
145.4751115074627
 20
43.40342572811922
 30
0.0
 10
145.4805615254224
 20
46.88646271668162
 30
0.0
 10
145.4711609477994
 20
48.6373640133618
 30
0.0
 10
145.4633945863988
 20
50.60749669711797
 30
0.0
 10
145.0993069699281
 20
52.85136578535662
 30
0.0
 10
144.1173425618234
 20
54.96262126809232
 30
0.0
 10
142.4516111632169
 20
56.72964977322655
 30
0.0
 10
140.0855111052939
 20
57.8344717868588
 30
0.0
 10
137.885293332877
 20
58.12626571385776
 30
0.0
 10
135.2262166396106
 20
58.16434875417261
 30
0.0
 10
133.4069013959895
 20
58.15852710795414
 30
0.0
 10
132.0924067714255
 20
58.15929853258501
 30
0.0
  0
SPLINE
  5
14E
330
1F
100
AcDbEntity
  8
MAKE2D_VISIBLE_LINES_-_TAN
100
AcDbSpline
210
0.0
220
0.0
230
1.0
 70
    12
 71
     2
 72
     8
 73
     5
 74
     0
 42
0.0000000001
 43
0.0000000001
 40
0.0
 40
0.0
 40
0.0
 40
0.282846667702135
 40
0.282846667702135
 40
0.4000049884056239
 40
0.4000049884056239
 40
0.4000049884056239
 10
145.0791497295496
 20
-43.25603199568241
 30
0.0
 41
1.0
 10
145.2205730633989
 20
-43.25603276525991
 30
0.0
 41
0.9999999999963487
 10
145.361996397242
 20
-43.2560342991851
 30
0.0
 41
1.0
 10
145.4205755576018
 20
-43.2560342598639
 30
0.0
 41
0.999999999793295
 10
145.4791547179147
 20
-43.25603660266586
 30
0.0
 41
1.0
  0
SPLINE
  5
14F
330
1F
100
AcDbEntity
  8
MAKE2D_VISIBLE_LINES
100
AcDbSpline
210
0.0
220
0.0
230
1.0
 70
    24
 71
     2
 72
     6
 73
     3
 74
     0
 42
0.0000000001
 43
0.0000000001
 40
0.0
 40
0.0
 40
0.0
 40
81.00066449641116
 40
81.00066449641116
 40
81.00066449641116
 10
145.4791547179101
 20
-43.25603660267125
 30
0.0
 10
145.4791547179334
 20
-2.755704354465674
 30
0.0
 10
145.4791547179566
 20
37.7446278937399
 30
0.0
  0
SPLINE
  5
150
330
1F
100
AcDbEntity
  8
MAKE2D_VISIBLE_LINES_-_TAN
100
AcDbSpline
210
0.0
220
0.0
230
1.0
 70
    12
 71
     2
 72
     6
 73
     3
 74
     0
 42
0.0000000001
 43
0.0000000001
 40
0.0
 40
0.0
 40
0.0
 40
0.3999951680798688
 40
0.3999951680798688
 40
0.3999951680798688
 10
102.2959226186415
 20
58.15929853044054
 30
0.0
 41
1.0
 10
102.2959226161222
 20
57.9593009464006
 30
0.0
 41
1.0
 10
102.2959226173281
 20
57.75930336236067
 30
0.0
 41
1.0
  0
SPLINE
  5
151
330
1F
100
AcDbEntity
  8
MAKE2D_VISIBLE_LINES
100
AcDbSpline
210
0.0
220
0.0
230
1.0
 70
    24
 71
     2
 72
     6
 73
     3
 74
     0
 42
0.0000000001
 43
0.0000000001
 40
0.0
 40
0.0
 40
0.0
 40
29.79648415371689
 40
29.79648415371689
 40
29.79648415371689
 10
132.0924067714254
 20
58.15929853258501
 30
0.0
 10
117.194164694567
 20
58.15929853151277
 30
0.0
 10
102.2959226177086
 20
58.15929853044054
 30
0.0
  0
SPLINE
  5
152
330
1F
100
AcDbEntity
  8
MAKE2D_VISIBLE_LINES_-_TAN
100
AcDbSpline
210
0.0
220
0.0
230
1.0
 70
    24
 71
     2
 72
     6
 73
     3
 74
     0
 42
0.0000000001
 43
0.0000000001
 40
0.0
 40
0.0
 40
0.0
 40
0.383177845764637
 40
0.383177845764637
 40
0.383177845764637
 10
132.0922834198585
 20
-63.27070637955426
 30
0.0
 10
132.0923425016134
 20
-63.46229529332683
 30
0.0
 10
132.0924015833683
 20
-63.6538842070994
 30
0.0
  0
SPLINE
  5
153
330
1F
100
AcDbEntity
  8
MAKE2D_VISIBLE_LINES
100
AcDbSpline
210
0.0
220
0.0
230
1.0
 70
    12
 71
     2
 72
     6
 73
     3
 74
     0
 42
0.0000000001
 43
0.0000000001
 40
0.0
 40
0.0
 40
0.0
 40
0.9321475843813949
 40
0.9321475843813949
 40
0.9321475843813949
 10
139.4998155172798
 20
-62.95344896768082
 30
0.0
 41
1.0
 10
139.0452491501736
 20
-63.05790514046318
 30
0.0
 41
0.9989074302274545
 10
138.5829159072348
 20
-63.11946524613352
 30
0.0
 41
1.0
  0
SPLINE
  5
154
330
1F
100
AcDbEntity
  8
MAKE2D_VISIBLE_LINES
100
AcDbSpline
210
0.0
220
0.0
230
1.0
 70
    12
 71
     2
 72
     6
 73
     3
 74
     0
 42
0.0000000001
 43
0.0000000001
 40
0.0
 40
0.0
 40
0.0
 40
0.9263426709953811
 40
0.9263426709953811
 40
0.9263426709953811
 10
138.1223306524514
 20
-63.17276917991404
 30
0.0
 41
1.0
 10
137.6611294892492
 20
-63.21669115384339
 30
0.0
 41
0.9996227278742253
 10
137.1982123433239
 20
-63.23522136542631
 30
0.0
 41
1.0
  0
SPLINE
  5
155
330
1F
100
AcDbEntity
  8
MAKE2D_VISIBLE_LINES
100
AcDbSpline
210
0.0
220
0.0
230
1.0
 70
    24
 71
     2
 72
     6
 73
     3
 74
     0
 42
0.0000000001
 43
0.0000000001
 40
0.0
 40
0.0
 40
0.0
 40
14.89815949836215
 40
14.89815949836215
 40
14.89815949836215
 10
132.0923234778556
 20
-63.13067501517493
 30
0.0
 10
124.6432440879247
 20
-63.13298849016939
 30
0.0
 10
117.1941646979938
 20
-63.13530196516385
 30
0.0
  0
SPLINE
  5
156
330
1F
100
AcDbEntity
  8
MAKE2D_VISIBLE_LINES_-_TAN
100
AcDbSpline
210
0.0
220
0.0
230
1.0
 70
    24
 71
     2
 72
     6
 73
     3
 74
     0
 42
0.0000000001
 43
0.0000000001
 40
0.0
 40
0.0
 40
0.0
 40
0.3680090753063303
 40
0.3680090753063303
 40
0.3680090753063303
 10
88.9160816387887
 20
48.45929362995977
 30
0.0
 10
88.73207710113553
 20
48.45929360999128
 30
0.0
 10
88.54807256348236
 20
48.45929359002278
 30
0.0
  0
SPLINE
  5
157
330
1F
100
AcDbEntity
  8
MAKE2D_VISIBLE_LINES
100
AcDbSpline
210
0.0
220
0.0
230
1.0
 70
    24
 71
     2
 72
     6
 73
     3
 74
     0
 42
0.0000000001
 43
0.0000000001
 40
0.0
 40
0.0
 40
0.0
 40
7.299999999999983
 40
7.299999999999983
 40
7.299999999999983
 10
128.2791646945319
 20
59.58929362995536
 30
0.0
 10
131.9291646945319
 20
59.58929362995536
 30
0.0
 10
135.5791646945319
 20
59.58929362995536
 30
0.0
  0
SPLINE
  5
158
330
1F
100
AcDbEntity
  8
MAKE2D_VISIBLE_LINES
100
AcDbSpline
210
0.0
220
0.0
230
1.0
 70
    24
 71
     2
 72
     6
 73
     3
 74
     0
 42
0.0000000001
 43
0.0000000001
 40
0.0
 40
0.0
 40
0.0
 40
7.299999999999983
 40
7.299999999999983
 40
7.299999999999983
 10
128.2791646945319
 20
59.73929362995537
 30
0.0
 10
131.9291646945319
 20
59.73929362995537
 30
0.0
 10
135.5791646945319
 20
59.73929362995537
 30
0.0
  0
SPLINE
  5
159
330
1F
100
AcDbEntity
  8
MAKE2D_VISIBLE_LINES_-_TAN
100
AcDbSpline
210
0.0
220
0.0
230
1.0
 70
    24
 71
     2
 72
     6
 73
     3
 74
     0
 42
0.0000000001
 43
0.0000000001
 40
0.0
 40
0.0
 40
0.0
 40
0.1500000000000057
 40
0.1500000000000057
 40
0.1500000000000057
 10
128.2791646945319
 20
59.73929362995537
 30
0.0
 10
128.2791646945319
 20
59.66429362995537
 30
0.0
 10
128.2791646945319
 20
59.58929362995536
 30
0.0
  0
SPLINE
  5
15A
330
1F
100
AcDbEntity
  8
MAKE2D_VISIBLE_LINES
100
AcDbSpline
210
0.0
220
0.0
230
1.0
 70
    28
 71
     2
 72
     6
 73
     3
 74
     0
 42
0.0000000001
 43
0.0000000001
 40
0.7363107781851077
 40
0.7363107781851077
 40
0.7363107781851077
 40
0.9817477042468103
 40
0.9817477042468103
 40
0.9817477042468103
 10
87.42916469453179
 20
42.00541131811939
 30
0.0
 41
0.8901650429449554
 10
87.42916469453179
 20
42.04929362995538
 30
0.0
 41
0.9267766952966369
 10
87.42916469453179
 20
42.04929362995537
 30
0.0
 41
1.0
  0
SPLINE
  5
15B
330
1F
100
AcDbEntity
  8
MAKE2D_VISIBLE_LINES
100
AcDbSpline
210
0.0
220
0.0
230
1.0
 70
    28
 71
     2
 72
     6
 73
     3
 74
     0
 42
0.0000000001
 43
0.0000000001
 40
0.9817477042468103
 40
0.9817477042468103
 40
0.9817477042468103
 40
1.963495408493621
 40
1.963495408493621
 40
1.963495408493621
 10
87.42916469453179
 20
42.04929362995537
 30
0.0
 41
1.0
 10
87.42916469453179
 20
42.04929362995536
 30
0.0
 41
0.7071067811865476
 10
87.42916469453179
 20
41.42429362995537
 30
0.0
 41
1.0
  0
SPLINE
  5
15C
330
1F
100
AcDbEntity
  8
MAKE2D_VISIBLE_LINES
100
AcDbSpline
210
0.0
220
0.0
230
1.0
 70
    24
 71
     2
 72
     6
 73
     3
 74
     0
 42
0.0000000001
 43
0.0000000001
 40
0.0
 40
0.0
 40
0.0
 40
4.249982086739323
 40
4.249982086739323
 40
4.249982086739323
 10
87.42916469453179
 20
37.17431154321605
 30
0.0
 10
87.42916469453179
 20
39.29930258658571
 30
0.0
 10
87.42916469453179
 20
41.42429362995537
 30
0.0
  0
SPLINE
  5
15D
330
1F
100
AcDbEntity
  8
MAKE2D_VISIBLE_LINES
100
AcDbSpline
210
0.0
220
0.0
230
1.0
 70
    24
 71
     2
 72
     6
 73
     3
 74
     0
 42
0.0000000001
 43
0.0000000001
 40
0.0
 40
0.0
 40
0.0
 40
0.5811176881640279
 40
0.5811176881640279
 40
0.5811176881640279
 10
87.42916469453179
 20
37.17431154321605
 30
0.0
 10
87.42916469453179
 20
36.88375269913404
 30
0.0
 10
87.42916469453179
 20
36.59319385505202
 30
0.0
  0
SPLINE
  5
15E
330
1F
100
AcDbEntity
  8
MAKE2D_VISIBLE_LINES
100
AcDbSpline
210
0.0
220
0.0
230
1.0
 70
    24
 71
     2
 72
     6
 73
     3
 74
     0
 42
0.0000000001
 43
0.0000000001
 40
0.0
 40
0.0
 40
0.0
 40
4.164941273674813
 40
4.164941273674813
 40
4.164941273674813
 10
87.4791646945318
 20
20.00423490363018
 30
0.0
 10
87.4791646945318
 20
17.92176426679277
 30
0.0
 10
87.4791646945318
 20
15.83929362995536
 30
0.0
  0
SPLINE
  5
15F
330
1F
100
AcDbEntity
  8
MAKE2D_VISIBLE_LINES
100
AcDbSpline
210
0.0
220
0.0
230
1.0
 70
    24
 71
     2
 72
     6
 73
     3
 74
     0
 42
0.0000000001
 43
0.0000000001
 40
0.0
 40
0.0
 40
0.0
 40
4.164941273683084
 40
4.164941273683084
 40
4.164941273683084
 10
87.4791646945318
 20
30.29423490363845
 30
0.0
 10
87.4791646945318
 20
28.21176426679691
 30
0.0
 10
87.4791646945318
 20
26.12929362995537
 30
0.0
  0
SPLINE
  5
160
330
1F
100
AcDbEntity
  8
MAKE2D_VISIBLE_LINES
100
AcDbSpline
210
0.0
220
0.0
230
1.0
 70
    24
 71
     2
 72
     6
 73
     3
 74
     0
 42
0.0000000001
 43
0.0000000001
 40
0.0
 40
0.0
 40
0.0
 40
0.1873417712316723
 40
0.1873417712316723
 40
0.1873417712316723
 10
87.3291646945318
 20
30.17929362995537
 30
0.0
 10
87.3954000129505
 20
30.24552894837407
 30
0.0
 10
87.46163533136921
 20
30.31176426679278
 30
0.0
  0
SPLINE
  5
161
330
1F
100
AcDbEntity
  8
MAKE2D_VISIBLE_LINES
100
AcDbSpline
210
0.0
220
0.0
230
1.0
 70
    24
 71
     2
 72
     6
 73
     3
 74
     0
 42
0.0000000001
 43
0.0000000001
 40
0.0
 40
0.0
 40
0.0
 40
0.1873417712316674
 40
0.1873417712316674
 40
0.1873417712316674
 10
87.3291646945318
 20
19.88929362995538
 30
0.0
 10
87.3954000129505
 20
19.95552894837408
 30
0.0
 10
87.46163533136921
 20
20.02176426679279
 30
0.0
  0
SPLINE
  5
162
330
1F
100
AcDbEntity
  8
MAKE2D_VISIBLE_LINES
100
AcDbSpline
210
0.0
220
0.0
230
1.0
 70
     8
 71
     3
 72
    15
 73
    11
 74
     0
 42
0.0000000001
 43
0.0000000001
 40
0.0
 40
0.0
 40
0.0
 40
0.0
 40
10.56934826532513
 40
12.81111315107148
 40
14.95585584143812
 40
16.98004989306706
 40
21.7563995871526
 40
24.14200937054821
 40
25.82093889705774
 40
29.53317824733197
 40
29.53317824733197
 40
29.53317824733197
 40
29.53317824733197
 10
144.9391762125785
 20
-43.25604858148913
 30
0.0
 10
144.9341355483947
 20
-46.78023177396435
 30
0.0
 10
144.9489850321967
 20
-51.047822353491
 30
0.0
 10
144.9201617016266
 20
-56.0358858642209
 30
0.0
 10
144.5895665175174
 20
-58.15476468523125
 30
0.0
 10
143.347448152336
 20
-60.92618510178606
 30
0.0
 10
140.6745201002665
 20
-62.77200736216255
 30
0.0
 10
137.7135998476241
 20
-63.09934404635173
 30
0.0
 10
135.1294897899519
 20
-63.13641692112859
 30
0.0
 10
133.3285587444495
 20
-63.12816772831999
 30
0.0
 10
132.0923234778556
 20
-63.13067501517493
 30
0.0
  0
SPLINE
  5
163
330
1F
100
AcDbEntity
  8
MAKE2D_VISIBLE_LINES
100
AcDbSpline
210
0.0
220
0.0
230
1.0
 70
    24
 71
     2
 72
     6
 73
     3
 74
     0
 42
0.0000000001
 43
0.0000000001
 40
0.0
 40
0.0
 40
0.0
 40
14.89815950024415
 40
14.89815950024415
 40
14.89815950024415
 10
117.1941646979938
 20
-63.13530196516385
 30
0.0
 10
109.7450853090977
 20
-63.13298213719658
 30
0.0
 10
102.2960059202016
 20
-63.13066230922932
 30
0.0
  0
SPLINE
  5
164
330
1F
100
AcDbEntity
  8
MAKE2D_VISIBLE_LINES
100
AcDbSpline
210
0.0
220
0.0
230
1.0
 70
     8
 71
     3
 72
    14
 73
    10
 74
     0
 42
0.0000000001
 43
0.0000000001
 40
0.0
 40
0.0
 40
0.0
 40
0.0
 40
3.467694083393313
 40
4.787968229294712
 40
6.865947679779779
 40
10.83704745583546
 40
15.11288964211531
 40
17.31760451139522
 40
20.24645238591516
 40
20.24645238591516
 40
20.24645238591516
 40
20.24645238591516
 10
102.2959723612715
 20
-64.03870635232327
 30
0.0
 10
101.1390065778177
 20
-64.03360955787784
 30
0.0
 10
99.54588986573599
 20
-64.04786062691196
 30
0.0
 10
97.25375922106426
 20
-64.01302345466789
 30
0.0
 10
94.80524978535657
 20
-63.88686116250239
 30
0.0
 10
91.46676473588916
 20
-62.65762987134957
 30
0.0
 10
89.28247286708756
 20
-59.73982244091093
 30
0.0
 10
88.58570286083489
 20
-56.66473981758239
 30
0.0
 10
88.55370555980709
 20
-54.94512120279322
 30
0.0
 10
88.54806001910906
 20
-53.97070646038641
 30
0.0
  0
SPLINE
  5
165
330
1F
100
AcDbEntity
  8
MAKE2D_VISIBLE_LINES
100
AcDbSpline
210
0.0
220
0.0
230
1.0
 70
     8
 71
     3
 72
    17
 73
    13
 74
     0
 42
0.0000000001
 43
0.0000000001
 40
0.0
 40
0.0
 40
0.0
 40
0.0
 40
7.516746381087864
 40
9.205071176009518
 40
10.52103850889257
 40
12.99124951418106
 40
15.33965314655976
 40
17.34411728465295
 40
22.5504981868345
 40
25.07815963483795
 40
26.41131612330648
 40
30.37936290085635
 40
30.37936290085635
 40
30.37936290085635
 40
30.37936290085635
 10
88.90917451441918
 20
-43.25603919415236
 30
0.0
 10
88.90657389204104
 20
-45.76252400317826
 30
0.0
 10
88.91360477480836
 20
-48.82832414528242
 30
0.0
 10
88.90728726073439
 20
-52.33829884340294
 30
0.0
 10
88.91911081101023
 20
-54.15809768418758
 30
0.0
 10
88.92360329172921
 20
-56.21524018341926
 30
0.0
 10
89.32478184076004
 20
-58.45286026328072
 30
0.0
 10
90.70631996864914
 20
-61.39220104789251
 30
0.0
 10
93.56531017740286
 20
-63.31255912099483
 30
0.0
 10
96.60201964177365
 20
-63.62871958728881
 30
0.0
 10
99.20174785640346
 20
-63.68428421067904
 30
0.0
 10
100.9756992717874
 20
-63.66524227831081
 30
0.0
 10
102.2959226177499
 20
-63.67071158687201
 30
0.0
  0
SPLINE
  5
166
330
1F
100
AcDbEntity
  8
MAKE2D_VISIBLE_LINES
100
AcDbSpline
210
0.0
220
0.0
230
1.0
 70
    24
 71
     2
 72
     6
 73
     3
 74
     0
 42
0.0000000001
 43
0.0000000001
 40
0.0
 40
0.0
 40
0.0
 40
0.9500000000000028
 40
0.9500000000000028
 40
0.9500000000000028
 10
127.3291646945319
 20
59.73929362995537
 30
0.0
 10
127.8041646945319
 20
59.73929362995537
 30
0.0
 10
128.2791646945319
 20
59.73929362995537
 30
0.0
  0
SPLINE
  5
167
330
1F
100
AcDbEntity
  8
MAKE2D_VISIBLE_LINES
100
AcDbSpline
210
0.0
220
0.0
230
1.0
 70
    24
 71
     2
 72
     6
 73
     3
 74
     0
 42
0.0000000001
 43
0.0000000001
 40
0.0
 40
0.0
 40
0.0
 40
0.950000000000017
 40
0.950000000000017
 40
0.950000000000017
 10
135.5791646945319
 20
59.73929362995537
 30
0.0
 10
136.0541646945319
 20
59.73929362995537
 30
0.0
 10
136.5291646945319
 20
59.73929362995537
 30
0.0
  0
SPLINE
  5
168
330
1F
100
AcDbEntity
  8
MAKE2D_VISIBLE_LINES_-_TAN
100
AcDbSpline
210
0.0
220
0.0
230
1.0
 70
    24
 71
     2
 72
     6
 73
     3
 74
     0
 42
0.0000000001
 43
0.0000000001
 40
0.0
 40
0.0
 40
0.0
 40
0.1500000000000057
 40
0.1500000000000057
 40
0.1500000000000057
 10
135.5791646945319
 20
59.73929362995537
 30
0.0
 10
135.5791646945319
 20
59.66429362995537
 30
0.0
 10
135.5791646945319
 20
59.58929362995536
 30
0.0
  0
SPLINE
  5
169
330
1F
100
AcDbEntity
  8
MAKE2D_VISIBLE_LINES_-_TAN
100
AcDbSpline
210
0.0
220
0.0
230
1.0
 70
    24
 71
     2
 72
     6
 73
     3
 74
     0
 42
0.0000000001
 43
0.0000000001
 40
0.0
 40
0.0
 40
0.0
 40
0.4806761559543418
 40
0.4806761559543418
 40
0.4806761559543418
 10
87.42916469453179
 20
41.42429362995537
 30
0.0
 10
87.66950277250896
 20
41.42429362995537
 30
0.0
 10
87.90984085048613
 20
41.42429362995537
 30
0.0
  0
SPLINE
  5
16A
330
1F
100
AcDbEntity
  8
MAKE2D_VISIBLE_LINES_-_TAN
100
AcDbSpline
210
0.0
220
0.0
230
1.0
 70
    24
 71
     2
 72
     6
 73
     3
 74
     0
 42
0.0000000001
 43
0.0000000001
 40
0.0
 40
0.0
 40
0.0
 40
0.4799999999999898
 40
0.4799999999999898
 40
0.4799999999999898
 10
87.90916469453178
 20
37.17431154321605
 30
0.0
 10
87.66916469453179
 20
37.17431154321605
 30
0.0
 10
87.42916469453179
 20
37.17431154321605
 30
0.0
  0
SPLINE
  5
16B
330
1F
100
AcDbEntity
  8
MAKE2D_VISIBLE_LINES
100
AcDbSpline
210
0.0
220
0.0
230
1.0
 70
    24
 71
     2
 72
     6
 73
     3
 74
     0
 42
0.0000000001
 43
0.0000000001
 40
0.0
 40
0.0
 40
0.0
 40
0.4300079010432299
 40
0.4300079010432299
 40
0.4300079010432299
 10
87.4791646945318
 20
15.83929362995536
 30
0.0
 10
87.69416864505342
 20
15.83929362995536
 30
0.0
 10
87.90917259557503
 20
15.83929362995536
 30
0.0
  0
SPLINE
  5
16C
330
1F
100
AcDbEntity
  8
MAKE2D_VISIBLE_LINES
100
AcDbSpline
210
0.0
220
0.0
230
1.0
 70
    24
 71
     2
 72
     6
 73
     3
 74
     0
 42
0.0000000001
 43
0.0000000001
 40
0.0
 40
0.0
 40
0.0
 40
0.4300079010432204
 40
0.4300079010432204
 40
0.4300079010432204
 10
87.4791646945318
 20
26.12929362995538
 30
0.0
 10
87.69416864505342
 20
26.12929362995538
 30
0.0
 10
87.90917259557503
 20
26.12929362995537
 30
0.0
  0
SPLINE
  5
16D
330
1F
100
AcDbEntity
  8
MAKE2D_VISIBLE_LINES
100
AcDbSpline
210
0.0
220
0.0
230
1.0
 70
    24
 71
     2
 72
     6
 73
     3
 74
     0
 42
0.0000000001
 43
0.0000000001
 40
0.0
 40
0.0
 40
0.0
 40
3.867445468420001
 40
3.867445468420001
 40
3.867445468420001
 10
87.3291646945318
 20
26.31184816153537
 30
0.0
 10
87.3291646945318
 20
28.24557089574537
 30
0.0
 10
87.3291646945318
 20
30.17929362995537
 30
0.0
  0
SPLINE
  5
16E
330
1F
100
AcDbEntity
  8
MAKE2D_VISIBLE_LINES
100
AcDbSpline
210
0.0
220
0.0
230
1.0
 70
    24
 71
     2
 72
     6
 73
     3
 74
     0
 42
0.0000000001
 43
0.0000000001
 40
0.0
 40
0.0
 40
0.0
 40
3.867445468420016
 40
3.867445468420016
 40
3.867445468420016
 10
87.3291646945318
 20
16.02184816153536
 30
0.0
 10
87.3291646945318
 20
17.95557089574537
 30
0.0
 10
87.3291646945318
 20
19.88929362995538
 30
0.0
  0
SPLINE
  5
16F
330
1F
100
AcDbEntity
  8
MAKE2D_VISIBLE_LINES
100
AcDbSpline
210
0.0
220
0.0
230
1.0
 70
    24
 71
     2
 72
     6
 73
     3
 74
     0
 42
0.0000000001
 43
0.0000000001
 40
0.0
 40
0.0
 40
0.0
 40
4.249982086739323
 40
4.249982086739323
 40
4.249982086739323
 10
87.2791646945318
 20
37.17431154321605
 30
0.0
 10
87.2791646945318
 20
39.29930258658571
 30
0.0
 10
87.2791646945318
 20
41.42429362995537
 30
0.0
  0
SPLINE
  5
170
330
1F
100
AcDbEntity
  8
MAKE2D_VISIBLE_LINES
100
AcDbSpline
210
0.0
220
0.0
230
1.0
 70
    24
 71
     2
 72
     6
 73
     3
 74
     0
 42
0.0000000001
 43
0.0000000001
 40
0.0
 40
0.0
 40
0.0
 40
0.4416494430046498
 40
0.4416494430046498
 40
0.4416494430046498
 10
87.2791646945318
 20
41.42429362995537
 30
0.0
 10
87.2791646945318
 20
41.6451183514577
 30
0.0
 10
87.2791646945318
 20
41.86594307296002
 30
0.0
  0
SPLINE
  5
171
330
1F
100
AcDbEntity
  8
MAKE2D_VISIBLE_LINES
100
AcDbSpline
210
0.0
220
0.0
230
1.0
 70
    12
 71
     2
 72
     6
 73
     3
 74
     0
 42
0.0000000001
 43
0.0000000001
 40
0.0
 40
0.0
 40
0.0
 40
12.06543699672277
 40
12.06543699672277
 40
12.06543699672277
 10
145.0791496707118
 20
37.74467654816868
 30
0.0
 41
1.0
 10
145.0866488881251
 20
43.7774504318461
 30
0.0
 41
0.9999850700370115
 10
145.0282176233892
 20
49.80994599812244
 30
0.0
 41
1.0
  0
SPLINE
  5
172
330
1F
100
AcDbEntity
  8
MAKE2D_VISIBLE_LINES
100
AcDbSpline
210
0.0
220
0.0
230
1.0
 70
     8
 71
     3
 72
    14
 73
    10
 74
     0
 42
0.0000000001
 43
0.0000000001
 40
0.0
 40
0.0
 40
0.0
 40
0.0
 40
2.928847880334576
 40
5.133562738766443
 40
9.409404885606259
 40
13.38050461691905
 40
15.45848404697567
 40
16.77875818067503
 40
20.24635029191933
 40
20.24635029191933
 40
20.24635029191933
 40
20.24635029191933
 10
145.8402691780229
 20
-53.97070644575535
 30
0.0
 10
145.834623642594
 20
-54.94512119673297
 30
0.0
 10
145.8026263579735
 20
-56.66473979195042
 30
0.0
 10
145.1058563744324
 20
-59.73982243298946
 30
0.0
 10
142.9215645566545
 20
-62.65762981372986
 30
0.0
 10
139.5830795222205
 20
-63.88686116052352
 30
0.0
 10
137.1345701393086
 20
-64.01302333053022
 30
0.0
 10
134.8424734730307
 20
-64.04786029274719
 30
0.0
 10
133.2493907524502
 20
-64.03360961894779
 30
0.0
 10
132.0924589683454
 20
-64.03870625306872
 30
0.0
  0
SPLINE
  5
173
330
1F
100
AcDbEntity
  8
MAKE2D_VISIBLE_LINES_-_TAN
100
AcDbSpline
210
0.0
220
0.0
230
1.0
 70
    24
 71
     2
 72
     6
 73
     3
 74
     0
 42
0.0000000001
 43
0.0000000001
 40
0.0
 40
0.0
 40
0.0
 40
0.6320000903387127
 40
0.6320000903387127
 40
0.6320000903387127
 10
132.0924589683453
 20
-64.03870625306874
 30
0.0
 10
132.092509938662
 20
-64.35470629412737
 30
0.0
 10
132.0925609089788
 20
-64.67070633518601
 30
0.0
  0
SPLINE
  5
174
330
1F
100
AcDbEntity
  8
MAKE2D_VISIBLE_LINES
100
AcDbSpline
210
0.0
220
0.0
230
1.0
 70
    12
 71
     2
 72
     6
 73
     3
 74
     0
 42
0.0000000001
 43
0.0000000001
 40
0.0
 40
0.0
 40
0.0
 40
0.9000088061916727
 40
0.9000088061916727
 40
0.9000088061916727
 10
87.91605028216124
 20
48.45929356140772
 30
0.0
 41
1.0
 10
87.91301590713488
 20
48.00929841099482
 30
0.0
 41
0.9999967407394796
 10
87.91227936304615
 20
47.55929363287603
 30
0.0
 41
1.0
  0
SPLINE
  5
175
330
1F
100
AcDbEntity
  8
MAKE2D_VISIBLE_LINES_-_TAN
100
AcDbSpline
210
0.0
220
0.0
230
1.0
 70
    12
 71
     2
 72
     6
 73
     3
 74
     0
 42
0.0000000001
 43
0.0000000001
 40
0.0
 40
0.0
 40
0.0
 40
0.6320099282108935
 40
0.6320099282108935
 40
0.6320099282108935
 10
88.54806021020785
 20
48.45929359002139
 30
0.0
 41
1.0
 10
88.23205524618399
 20
48.45930605526095
 30
0.0
 41
0.9999999992202061
 10
87.91605028216124
 20
48.45929356140741
 30
0.0
 41
1.0
  0
SPLINE
  5
176
330
1F
100
AcDbEntity
  8
MAKE2D_VISIBLE_LINES_-_TAN
100
AcDbSpline
210
0.0
220
0.0
230
1.0
 70
    12
 71
     2
 72
     6
 73
     3
 74
     0
 42
0.0000000001
 43
0.0000000001
 40
0.0
 40
0.0
 40
0.0
 40
0.6319778571723579
 40
0.6319778571723579
 40
0.6319778571723579
 10
87.91227936304615
 20
47.55929363287623
 30
0.0
 41
1.0
 10
88.22826829163147
 20
47.55929489405994
 30
0.0
 41
0.9999999999921474
 10
88.54425722021685
 20
47.55929365072285
 30
0.0
 41
1.0
  0
SPLINE
  5
177
330
1F
100
AcDbEntity
  8
MAKE2D_VISIBLE_LINES
100
AcDbSpline
210
0.0
220
0.0
230
1.0
 70
    12
 71
     2
 72
     6
 73
     3
 74
     0
 42
0.0000000001
 43
0.0000000001
 40
0.0
 40
0.0
 40
0.0
 40
0.9000088346349331
 40
0.9000088346349331
 40
0.9000088346349331
 10
88.54428251007464
 20
47.5592936506182
 30
0.0
 41
1.0
 10
88.54502884601828
 20
48.00929841595987
 30
0.0
 41
0.9999967769570711
 10
88.54806021020784
 20
48.45929359002145
 30
0.0
 41
1.0
  0
SPLINE
  5
178
330
1F
100
AcDbEntity
  8
MAKE2D_VISIBLE_LINES_-_TAN
100
AcDbSpline
210
0.0
220
0.0
230
1.0
 70
    24
 71
     2
 72
     6
 73
     3
 74
     0
 42
0.0000000001
 43
0.0000000001
 40
0.0
 40
0.0
 40
0.0
 40
0.3679969201288605
 40
0.3679969201288605
 40
0.3679969201288605
 10
145.4760464926794
 20
-53.07070637004462
 30
0.0
 10
145.6600449527438
 20
-53.07070638037562
 30
0.0
 10
145.8440434128083
 20
-53.07070639070662
 30
0.0
  0
SPLINE
  5
179
330
1F
100
AcDbEntity
  8
MAKE2D_VISIBLE_LINES
100
AcDbSpline
210
0.0
220
0.0
230
1.0
 70
    12
 71
     2
 72
     6
 73
     3
 74
     0
 42
0.0000000001
 43
0.0000000001
 40
0.0
 40
0.0
 40
0.0
 40
0.9000092554414473
 40
0.9000092554414473
 40
0.9000092554414473
 10
145.8440468789835
 20
-53.07070639070681
 30
0.0
 41
1.0
 10
145.8434813477299
 20
-53.52071196024614
 30
0.0
 41
0.9999956761430545
 10
145.8402691782032
 20
-53.97070642066643
 30
0.0
 41
1.0
  0
SPLINE
  5
17A
330
1F
100
AcDbEntity
  8
MAKE2D_VISIBLE_LINES_-_TAN
100
AcDbSpline
210
0.0
220
0.0
230
1.0
 70
    24
 71
     2
 72
     6
 73
     3
 74
     0
 42
0.0000000001
 43
0.0000000001
 40
0.0
 40
0.0
 40
0.0
 40
0.3680084320651779
 40
0.3680084320651779
 40
0.3680084320651779
 10
145.8402561823401
 20
-53.97070642066464
 30
0.0
 10
145.6562519663075
 20
-53.97070639535458
 30
0.0
 10
145.4722477502749
 20
-53.97070637004452
 30
0.0
  0
SPLINE
  5
17B
330
1F
100
AcDbEntity
  8
MAKE2D_VISIBLE_LINES
100
AcDbSpline
210
0.0
220
0.0
230
1.0
 70
    12
 71
     2
 72
     6
 73
     3
 74
     0
 42
0.0000000001
 43
0.0000000001
 40
0.0
 40
0.0
 40
0.0
 40
0.9000092474225335
 40
0.9000092474225335
 40
0.9000092474225335
 10
88.54806001879903
 20
-53.97070641725553
 30
0.0
 41
1.0
 10
88.5448500186675
 20
-53.52071194945714
 30
0.0
 41
0.9999956897850277
 10
88.54428247833968
 20
-53.07070639054928
 30
0.0
 41
1.0
  0
SPLINE
  5
17C
330
1F
100
AcDbEntity
  8
MAKE2D_VISIBLE_LINES_-_TAN
100
AcDbSpline
210
0.0
220
0.0
230
1.0
 70
    24
 71
     2
 72
     6
 73
     3
 74
     0
 42
0.0000000001
 43
0.0000000001
 40
0.0
 40
0.0
 40
0.0
 40
0.368000418044503
 40
0.368000418044503
 40
0.368000418044503
 10
88.54428247833968
 20
-53.07070639054928
 30
0.0
 10
88.72828268736194
 20
-53.07070638029695
 30
0.0
 10
88.91228289638418
 20
-53.07070637004462
 30
0.0
  0
SPLINE
  5
17D
330
1F
100
AcDbEntity
  8
MAKE2D_VISIBLE_LINES_-_TAN
100
AcDbSpline
210
0.0
220
0.0
230
1.0
 70
    24
 71
     2
 72
     6
 73
     3
 74
     0
 42
0.0000000001
 43
0.0000000001
 40
0.0
 40
0.0
 40
0.0
 40
0.3680092808748555
 40
0.3680092808748555
 40
0.3680092808748555
 10
88.9160816387887
 20
-53.97070637004462
 30
0.0
 10
88.73207699835126
 20
-53.97070639364928
 30
0.0
 10
88.54807235791384
 20
-53.97070641725394
 30
0.0
  0
SPLINE
  5
17E
330
1F
100
AcDbEntity
  8
MAKE2D_VISIBLE_LINES
100
AcDbSpline
210
0.0
220
0.0
230
1.0
 70
    12
 71
     2
 72
     6
 73
     3
 74
     0
 42
0.0000000001
 43
0.0000000001
 40
0.0
 40
0.0
 40
0.0
 40
0.8128869417517636
 40
0.8128869417517636
 40
0.8128869417517636
 10
88.84807323944379
 20
48.45929362991407
 30
0.0
 41
1.0
 10
88.8452730062767
 20
48.05285899608484
 30
0.0
 41
0.9999970132736308
 10
88.84445950430924
 20
47.64641553003298
 30
0.0
 41
1.0
  0
SPLINE
  5
17F
330
1F
100
AcDbEntity
  8
MAKE2D_VISIBLE_LINES
100
AcDbSpline
210
0.0
220
0.0
230
1.0
 70
    24
 71
     2
 72
     6
 73
     3
 74
     0
 42
0.0000000001
 43
0.0000000001
 40
0.0
 40
0.0
 40
0.0
 40
0.0415201968934653
 40
0.0415201968934653
 40
0.0415201968934653
 10
89.35252055636703
 20
-53.17070637004463
 30
0.0
 10
89.3317604579203
 20
-53.17070637004463
 30
0.0
 10
89.31100035947355
 20
-53.17070637004463
 30
0.0
  0
SPLINE
  5
180
330
1F
100
AcDbEntity
  8
MAKE2D_VISIBLE_LINES
100
AcDbSpline
210
0.0
220
0.0
230
1.0
 70
    24
 71
     2
 72
     6
 73
     3
 74
     0
 42
0.0000000001
 43
0.0000000001
 40
0.0
 40
0.0
 40
0.0
 40
0.041623590506882
 40
0.041623590506882
 40
0.041623590506882
 10
89.3523049582626
 20
-53.07070637174357
 30
0.0
 10
89.33149316300916
 20
-53.07070637174343
 30
0.0
 10
89.3106813677557
 20
-53.07070637174328
 30
0.0
  0
SPLINE
  5
181
330
1F
100
AcDbEntity
  8
MAKE2D_VISIBLE_LINES
100
AcDbSpline
210
0.0
220
0.0
230
1.0
 70
    12
 71
     2
 72
     6
 73
     3
 74
     0
 42
0.0000000001
 43
0.0000000001
 40
0.0
 40
0.0
 40
0.0
 40
0.8811256780306347
 40
0.8811256780306347
 40
0.8811256780306347
 10
145.5440454353211
 20
47.55929363153734
 30
0.0
 41
1.0
 10
145.5434819307438
 20
47.99985707636772
 30
0.0
 41
0.999996710384186
 10
145.5406583512645
 20
48.44041183330168
 30
0.0
 41
1.0
  0
SPLINE
  5
182
330
1F
100
AcDbEntity
  8
MAKE2D_VISIBLE_LINES
100
AcDbSpline
210
0.0
220
0.0
230
1.0
 70
    12
 71
     2
 72
     6
 73
     3
 74
     0
 42
0.0000000001
 43
0.0000000001
 40
0.0
 40
0.0
 40
0.0
 40
0.9000089244732236
 40
0.9000089244732236
 40
0.9000089244732236
 10
87.9160502829475
 20
-53.97070641177
 30
0.0
 41
1.0
 10
87.9130159072006
 20
-53.52071120221942
 30
0.0
 41
0.9999967407385243
 10
87.91227936303011
 20
-53.07070636495951
 30
0.0
 41
1.0
  0
SPLINE
  5
183
330
1F
100
AcDbEntity
  8
MAKE2D_VISIBLE_LINES
100
AcDbSpline
210
0.0
220
0.0
230
1.0
 70
    12
 71
     2
 72
    24
 73
    21
 74
     0
 42
0.0000000001
 43
0.0000000001
 40
0.0
 40
0.0
 40
0.0
 40
0.0000650936992322
 40
0.0000650936992322
 40
0.9322541865863888
 40
0.9322541865863888
 40
1.857026303904363
 40
1.857026303904363
 40
2.788218792734163
 40
2.788218792734163
 40
3.252785362412024
 40
3.252785362412024
 40
3.714898068768649
 40
3.714898068768649
 40
4.176331318809233
 40
4.176331318809233
 40
4.638464622978031
 40
4.638464622978031
 40
5.567975677538954
 40
5.567975677538954
 40
6.497306573960554
 40
6.497306573960554
 40
6.497306573960554
 10
142.7428546752956
 20
55.70872954994255
 30
0.0
 41
1.0
 10
142.7428783830942
 20
55.70870725111502
 30
0.0
 41
0.9999999999876372
 10
142.7429020906709
 20
55.70868495205173
 30
0.0
 41
1.0
 10
143.0829919066743
 20
55.38881770213398
 30
0.0
 41
0.997481113670333
 10
143.3743957450515
 20
55.02404387700651
 30
0.0
 41
1.0
 10
143.6634583693085
 20
54.6621906912417
 30
0.0
 41
0.9975729564153016
 10
143.899449484023
 20
54.26368959642974
 30
0.0
 41
1.0
 10
144.1369018894602
 20
53.86236064953827
 30
0.0
 41
0.9976933946614895
 10
144.3178060866296
 20
53.43256739702321
 30
0.0
 41
1.0
 10
144.4080953500112
 20
53.2184645017695
 30
0.0
 41
0.9994905229983267
 10
144.484540580915
 20
52.99903723019629
 30
0.0
 41
1.0
 10
144.5605157082452
 20
52.78075669783259
 30
0.0
 41
0.9995567148180097
 10
144.6233646025663
 20
52.55834125937471
 30
0.0
 41
1.0
 10
144.6861601775319
 20
52.33627573476995
 30
0.0
 41
0.9996307383994036
 10
144.7367989791618
 20
52.1111266880859
 30
0.0
 41
1.0
 10
144.7874627948433
 20
51.8856328243632
 30
0.0
 41
0.9996839705035748
 10
144.8267288695599
 20
51.65787751669214
 30
0.0
 41
1.0
 10
144.9049772512069
 20
51.19950608783707
 30
0.0
 41
0.9992040247136068
 10
144.9464356278492
 20
50.73635559498706
 30
0.0
 41
1.0
 10
144.9876697971033
 20
50.27342269880494
 30
0.0
 41
0.9996765893955012
 10
145.0053129030952
 20
49.8089920324051
 30
0.0
 41
1.0
  0
SPLINE
  5
184
330
1F
100
AcDbEntity
  8
MAKE2D_VISIBLE_LINES
100
AcDbSpline
210
0.0
220
0.0
230
1.0
 70
    24
 71
     2
 72
     6
 73
     3
 74
     0
 42
0.0000000001
 43
0.0000000001
 40
0.0
 40
0.0
 40
0.0
 40
81.00066783658055
 40
81.00066783658055
 40
81.00066783658055
 10
145.0391580434277
 20
37.74461925549795
 30
0.0
 10
145.0391547179393
 20
-2.755714662792187
 30
0.0
 10
145.0391513924509
 20
-43.25604858108233
 30
0.0
  0
SPLINE
  5
185
330
1F
100
AcDbEntity
  8
MAKE2D_VISIBLE_LINES
100
AcDbSpline
210
0.0
220
0.0
230
1.0
 70
     8
 71
     3
 72
    14
 73
    10
 74
     0
 42
0.0000000001
 43
0.0000000001
 40
0.0
 40
0.0
 40
0.0
 40
0.0
 40
2.838943885504889
 40
4.992084622997609
 40
9.333962335060503
 40
13.35148492450259
 40
15.57651670618429
 40
16.81376160302838
 40
20.24436990685986
 40
20.24436990685986
 40
20.24436990685986
 40
20.24436990685986
 10
88.54806021020785
 20
48.45929359002145
 30
0.0
 10
88.5546834470321
 20
49.40368316956936
 30
0.0
 10
88.58355847250452
 20
51.07661161968151
 30
0.0
 10
89.23876180196847
 20
54.12892651909048
 30
0.0
 10
91.39556790378873
 20
57.10952044744522
 30
0.0
 10
94.80830066742121
 20
58.38198619412461
 30
0.0
 10
97.2977865455902
 20
58.50329006946363
 30
0.0
 10
99.59711426007789
 20
58.53440114819968
 30
0.0
 10
101.1519797249001
 20
58.52369814414192
 30
0.0
 10
102.2958704207
 20
58.52729351297947
 30
0.0
  0
SPLINE
  5
186
330
1F
100
AcDbEntity
  8
MAKE2D_VISIBLE_LINES
100
AcDbSpline
210
0.0
220
0.0
230
1.0
 70
    24
 71
     2
 72
     6
 73
     3
 74
     0
 42
0.0000000001
 43
0.0000000001
 40
0.0
 40
0.0
 40
0.0
 40
29.79648660709208
 40
29.79648660709208
 40
29.79648660709208
 10
102.2958704207
 20
58.52729351297947
 30
0.0
 10
117.194113724246
 20
58.52729356260673
 30
0.0
 10
132.0923570277921
 20
58.52729361223399
 30
0.0
  0
SPLINE
  5
187
330
1F
100
AcDbEntity
  8
MAKE2D_VISIBLE_LINES
100
AcDbSpline
210
0.0
220
0.0
230
1.0
 70
     8
 71
     3
 72
    14
 73
    10
 74
     0
 42
0.0000000001
 43
0.0000000001
 40
0.0
 40
0.0
 40
0.0
 40
0.0
 40
3.430488487457871
 40
4.667802343613372
 40
6.893470079278152
 40
10.91108501203354
 40
15.25249296031692
 40
17.40534460705563
 40
20.2444708109552
 40
20.2444708109552
 40
20.2444708109552
 40
20.2444708109552
 10
132.0923570277921
 20
58.52729361223399
 30
0.0
 10
133.236127556645
 20
58.52437046470529
 30
0.0
 10
134.7911113885169
 20
58.53395441837884
 30
0.0
 10
137.0905647605784
 20
58.50343313921928
 30
0.0
 10
139.5803428881596
 20
58.38186258506975
 30
0.0
 10
142.9930605694177
 20
57.10926665366743
 30
0.0
 10
145.1496239411697
 20
54.12874825674571
 30
0.0
 10
145.8047533785216
 20
51.07664495635595
 30
0.0
 10
145.833648305596
 20
49.40374042219214
 30
0.0
 10
145.840269370819
 20
48.45929360028862
 30
0.0
  0
SPLINE
  5
188
330
1F
100
AcDbEntity
  8
MAKE2D_VISIBLE_LINES_-_TAN
100
AcDbSpline
210
0.0
220
0.0
230
1.0
 70
    24
 71
     2
 72
     6
 73
     3
 74
     0
 42
0.0000000001
 43
0.0000000001
 40
0.0
 40
0.0
 40
0.0
 40
0.3680090687547602
 40
0.3680090687547602
 40
0.3680090687547602
 10
145.8402568190297
 20
48.45929360028963
 30
0.0
 10
145.6562522846523
 20
48.45929361512234
 30
0.0
 10
145.4722477502749
 20
48.45929362995506
 30
0.0
  0
SPLINE
  5
189
330
1F
100
AcDbEntity
  8
MAKE2D_VISIBLE_LINES
100
AcDbSpline
210
0.0
220
0.0
230
1.0
 70
    12
 71
     2
 72
     6
 73
     3
 74
     0
 42
0.0000000001
 43
0.0000000001
 40
0.0
 40
0.0
 40
0.0
 40
0.9000091705426664
 40
0.9000091705426664
 40
0.9000091705426664
 10
145.8402693708191
 20
48.45929360028862
 30
0.0
 41
1.0
 10
145.8434793703516
 20
48.00929917092736
 30
0.0
 41
0.9999956897863537
 10
145.8440469107127
 20
47.55929365046003
 30
0.0
 41
1.0
  0
SPLINE
  5
18A
330
1F
100
AcDbEntity
  8
MAKE2D_VISIBLE_LINES_-_TAN
100
AcDbSpline
210
0.0
220
0.0
230
1.0
 70
    24
 71
     2
 72
     6
 73
     3
 74
     0
 42
0.0000000001
 43
0.0000000001
 40
0.0
 40
0.0
 40
0.0
 40
0.3679970143111581
 40
0.3679970143111581
 40
0.3679970143111581
 10
145.8440435069905
 20
47.55929365045985
 30
0.0
 10
145.660044999835
 20
47.55929364020761
 30
0.0
 10
145.4760464926794
 20
47.55929362995536
 30
0.0
  0
SPLINE
  5
18B
330
1F
100
AcDbEntity
  8
MAKE2D_VISIBLE_LINES_-_TAN
100
AcDbSpline
210
0.0
220
0.0
230
1.0
 70
    12
 71
     2
 72
     6
 73
     3
 74
     0
 42
0.0000000001
 43
0.0000000001
 40
0.0
 40
0.0
 40
0.0
 40
0.6320042921401677
 40
0.6320042921401677
 40
0.6320042921401677
 10
146.4722736627949
 20
48.4592936718941
 30
0.0
 41
1.0
 10
146.1562715168056
 20
48.45930611514694
 30
0.0
 41
0.9999999992202536
 10
145.840269370819
 20
48.45929360028777
 30
0.0
 41
1.0
  0
SPLINE
  5
18C
330
1F
100
AcDbEntity
  8
MAKE2D_VISIBLE_LINES_-_TAN
100
AcDbSpline
210
0.0
220
0.0
230
1.0
 70
    12
 71
     2
 72
     6
 73
     3
 74
     0
 42
0.0000000001
 43
0.0000000001
 40
0.0
 40
0.0
 40
0.0
 40
0.6320013625774753
 40
0.6320013625774753
 40
0.6320013625774753
 10
145.8440469107127
 20
47.55929365045495
 30
0.0
 41
1.0
 10
146.1600475920006
 20
47.55929489401737
 30
0.0
 41
0.9999999999921467
 10
146.4760482732885
 20
47.55929363288001
 30
0.0
 41
1.0
  0
SPLINE
  5
18D
330
1F
100
AcDbEntity
  8
MAKE2D_VISIBLE_LINES
100
AcDbSpline
210
0.0
220
0.0
230
1.0
 70
    12
 71
     2
 72
     6
 73
     3
 74
     0
 42
0.0000000001
 43
0.0000000001
 40
0.0
 40
0.0
 40
0.0
 40
0.900008892735048
 40
0.900008892735048
 40
0.900008892735048
 10
146.4760500260174
 20
47.55929363287606
 30
0.0
 41
1.0
 10
146.4752994534037
 20
48.00929840735498
 30
0.0
 41
0.9999968198444135
 10
146.4722791061161
 20
48.45929367168043
 30
0.0
 41
1.0
  0
SPLINE
  5
18E
330
1F
100
AcDbEntity
  8
MAKE2D_VISIBLE_LINES_-_TAN
100
AcDbSpline
210
0.0
220
0.0
230
1.0
 70
    12
 71
     2
 72
     6
 73
     3
 74
     0
 42
0.0000000001
 43
0.0000000001
 40
0.0
 40
0.0
 40
0.0
 40
0.6320099288488925
 40
0.6320099288488925
 40
0.6320099288488925
 10
146.4722791068878
 20
-53.9707063035371
 30
0.0
 41
1.0
 10
146.1562741425478
 20
-53.97071884189563
 30
0.0
 41
0.9999999992201752
 10
145.8402691782032
 20
-53.9707064206656
 30
0.0
 41
1.0
  0
SPLINE
  5
18F
330
1F
100
AcDbEntity
  8
MAKE2D_VISIBLE_LINES
100
AcDbSpline
210
0.0
220
0.0
230
1.0
 70
    24
 71
     2
 72
     6
 73
     3
 74
     0
 42
0.0000000001
 43
0.0000000001
 40
0.0
 40
0.0
 40
0.0
 40
81.00066783658056
 40
81.00066783658056
 40
81.00066783658056
 10
89.34917134563585
 20
-43.25603199558724
 30
0.0
 10
89.34917467112425
 20
-2.75569807729709
 30
0.0
 10
89.34917799661265
 20
37.74463584099306
 30
0.0
  0
SPLINE
  5
190
330
1F
100
AcDbEntity
  8
MAKE2D_VISIBLE_LINES
100
AcDbSpline
210
0.0
220
0.0
230
1.0
 70
    12
 71
     2
 72
    86
 73
    83
 74
     0
 42
0.0000000001
 43
0.0000000001
 40
0.0
 40
0.0
 40
0.0
 40
0.4637119493054266
 40
0.4637119493054266
 40
0.9274269714748322
 40
0.9274269714748322
 40
1.391145692104748
 40
1.391145692104748
 40
1.854850572637893
 40
1.854850572637893
 40
2.318551498731022
 40
2.318551498731022
 40
2.782243964844112
 40
2.782243964844112
 40
3.709580073719288
 40
3.709580073719288
 40
4.636759130029309
 40
4.636759130029309
 40
5.100340653406921
 40
5.100340653406921
 40
5.564093552017256
 40
5.564093552017256
 40
6.028347553853527
 40
6.028347553853527
 40
6.493725467147602
 40
6.493725467147602
 40
7.42391318274889
 40
7.42391318274889
 40
8.349412146480601
 40
8.349412146480601
 40
8.65880274570628
 40
8.65880274570628
 40
9.28113387122929
 40
9.28113387122929
 40
10.20617455266208
 40
10.20617455266208
 40
11.13001354385737
 40
11.13001354385737
 40
12.06220263674814
 40
12.06220263674814
 40
12.98697475406969
 40
12.98697475406969
 40
13.91816724289953
 40
13.91816724289953
 40
14.38273381258122
 40
14.38273381258122
 40
14.84484651894045
 40
14.84484651894045
 40
15.30627976898206
 40
15.30627976898206
 40
15.76841307315114
 40
15.76841307315114
 40
16.69792412771148
 40
16.69792412771148
 40
17.62735593562054
 40
17.62735593562054
 40
18.09146929677741
 40
18.09146929677741
 40
18.55548632843478
 40
18.55548632843478
 40
19.48349255393182
 40
19.48349255393182
 40
20.41152169036144
 40
20.41152169036144
 40
21.33956085102029
 40
21.33956085102029
 40
22.26760207860256
 40
22.26760207860256
 40
23.01003306792457
 40
23.01003306792457
 40
23.75246752878671
 40
23.75246752878671
 40
24.49490325777895
 40
24.49490325777895
 40
25.23733683999883
 40
25.23733683999883
 40
26.35099164549889
 40
26.35099164549889
 40
27.46464611998883
 40
27.46464611998883
 40
28.57829928042602
 40
28.57829928042602
 40
29.69195233586158
 40
29.69195233586158
 40
29.69195233586158
 10
102.2959904711447
 20
-63.23070637004457
 30
0.0
 41
1.0
 10
102.0641345183276
 20
-63.23060469300134
 30
0.0
 41
0.9999999970312837
 10
101.8322785839331
 20
-63.23046728476062
 30
0.0
 41
1.0
 10
101.6004211054845
 20
-63.23032796851191
 30
0.0
 41
0.9999999403552429
 10
101.3685635861173
 20
-63.23034881161253
 30
0.0
 41
1.0
 10
101.1367042294269
 20
-63.23040075157699
 30
0.0
 41
0.9999999858114972
 10
100.9048448683963
 20
-63.23037457591615
 30
0.0
 41
1.0
 10
100.6729924482151
 20
-63.23023557549644
 30
0.0
 41
0.9999998603761581
 10
100.4411403044289
 20
-63.22985153551593
 30
0.0
 41
1.0
 10
100.209290112582
 20
-63.22949675762353
 30
0.0
 41
0.9999999984390895
 10
99.97743988253757
 20
-63.22916788818514
 30
0.0
 41
1.0
 10
99.74559387663747
 20
-63.22881577014202
 30
0.0
 41
0.9999997396907856
 10
99.51374862027755
 20
-63.22812908073736
 30
0.0
 41
1.0
 10
99.05008067460064
 20
-63.22713372319119
 30
0.0
 41
0.9999968956113006
 10
98.58642344686577
 20
-63.22382770533092
 30
0.0
 41
1.0
 10
98.12283722005103
 20
-63.2201445732814
 30
0.0
 41
0.9999633435560055
 10
97.65938203491366
 20
-63.20852362137037
 30
0.0
 41
1.0
 10
97.42765688923579
 20
-63.20278857750495
 30
0.0
 41
0.999965428639962
 10
97.19605915928632
 20
-63.19320080665857
 30
0.0
 41
1.0
 10
96.96437758785248
 20
-63.18345035667473
 30
0.0
 41
0.9999339693163624
 10
96.73298128862932
 20
-63.16837804687281
 30
0.0
 41
1.0
 10
96.50132423749518
 20
-63.15334876989927
 30
0.0
 41
0.9998897218495861
 10
96.27021570977021
 20
-63.13144632895499
 30
0.0
 41
1.0
 10
96.03853672626114
 20
-63.10949260917975
 30
0.0
 41
0.9998204288106399
 10
95.80785604470232
 20
-63.07877550698359
 30
0.0
 41
1.0
 10
95.34641260620113
 20
-63.01787187738631
 30
0.0
 41
0.9988678825306486
 10
94.89284549079757
 20
-62.91339139663299
 30
0.0
 41
1.0
 10
94.44144595250467
 20
-62.8092012380601
 30
0.0
 41
0.9983223276311359
 10
94.00511827006322
 20
-62.65352437449398
 30
0.0
 41
1.0
 10
93.85946275598386
 20
-62.60134762275878
 30
0.0
 41
0.9997710787926529
 10
93.7161728405304
 20
-62.54298717097247
 30
0.0
 41
1.0
 10
93.42779582118695
 20
-62.42554676527708
 30
0.0
 41
0.998997836645038
 10
93.15107660078306
 20
-62.28278813249299
 30
0.0
 41
1.0
 10
92.73931450964353
 20
-62.0705194170782
 30
0.0
 41
0.9976200015179787
 10
92.36067062183088
 20
-61.80362087181143
 30
0.0
 41
1.0
 10
91.9824961494369
 20
-61.53705152996091
 30
0.0
 41
0.997528028021615
 10
91.64542729844618
 20
-61.22009769219127
 30
0.0
 41
1.0
 10
91.3053374824379
 20
-60.90023044227611
 30
0.0
 41
0.9974811136703066
 10
91.01393364405567
 20
-60.53545661715027
 30
0.0
 41
1.0
 10
90.72487101979361
 20
-60.17360343138719
 30
0.0
 41
0.9975729564152674
 10
90.48887990507434
 20
-59.77510233657602
 30
0.0
 41
1.0
 10
90.25142749963312
 20
-59.37377338968684
 30
0.0
 41
0.9976933946614754
 10
90.07052330245966
 20
-58.94398013717347
 30
0.0
 41
1.0
 10
89.98023403907533
 20
-58.72987724191886
 30
0.0
 41
0.9994905229983105
 10
89.90378880816908
 20
-58.51044997034445
 30
0.0
 41
1.0
 10
89.82781368083668
 20
-58.29216943798017
 30
0.0
 41
0.9995567148179918
 10
89.76496478651356
 20
-58.06975399952147
 30
0.0
 41
1.0
 10
89.70216921154615
 20
-57.84768847491669
 30
0.0
 41
0.9996307383993879
 10
89.6515304099147
 20
-57.62253942823246
 30
0.0
 41
1.0
 10
89.60086659423166
 20
-57.39704556450997
 30
0.0
 41
0.999683970503571
 10
89.56160051951356
 20
-57.16929025683901
 30
0.0
 41
1.0
 10
89.48335213786402
 20
-56.71091882798466
 30
0.0
 41
0.999204024713576
 10
89.44189376121976
 20
-56.24776833513511
 30
0.0
 41
1.0
 10
89.4006553189921
 20
-55.78478513665051
 30
0.0
 41
0.9996765364507334
 10
89.38301243711865
 20
-55.32030394228889
 30
0.0
 41
1.0
 10
89.37381641800272
 20
-55.08842435102451
 30
0.0
 41
0.9999664555313053
 10
89.36842002464029
 20
-54.85642523345894
 30
0.0
 41
1.0
 10
89.36302646623272
 20
-54.62447712942829
 30
0.0
 41
0.9999852028793637
 10
89.36015680309549
 20
-54.39248407248651
 30
0.0
 41
1.0
 10
89.35473834918076
 20
-53.92850963879089
 30
0.0
 41
0.999990433909518
 10
89.3533789347593
 20
-53.46450555825017
 30
0.0
 41
1.0
 10
89.3518678500755
 20
-53.00049320846296
 30
0.0
 41
0.9999992175816121
 10
89.35151766697017
 20
-52.53647853035055
 30
0.0
 41
1.0
 10
89.3510443603603
 20
-52.07245917632247
 30
0.0
 41
0.9999999512246833
 10
89.35086090905293
 20
-51.60843961716854
 30
0.0
 41
1.0
 10
89.35067653980371
 20
-51.14441903927515
 30
0.0
 41
0.9999999976402968
 10
89.35042841604442
 20
-50.68039849109312
 30
0.0
 41
1.0
 10
89.35020211842524
 20
-50.30918306274621
 30
0.0
 41
0.9999999892399861
 10
89.34986690839064
 20
-49.93796771677081
 30
0.0
 41
1.0
 10
89.34959197970112
 20
-49.56675055961438
 30
0.0
 41
0.9999998847034476
 10
89.34967356886722
 20
-49.1955333096161
 30
0.0
 41
1.0
 10
89.34973158928638
 20
-48.82431544267082
 30
0.0
 41
0.9999999717818786
 10
89.34961323434558
 20
-48.4530975900588
 30
0.0
 41
1.0
 10
89.34947217452851
 20
-48.08188082574973
 30
0.0
 41
0.9999999999999363
 10
89.3493308496066
 20
-47.71066406154154
 30
0.0
 41
1.0
 10
89.34928608241682
 20
-47.15383665832622
 30
0.0
 41
0.9999999938990003
 10
89.34936433247995
 20
-46.59700925880957
 30
0.0
 41
1.0
 10
89.34940963801317
 20
-46.04018202218149
 30
0.0
 41
0.9999999966967654
 10
89.34936442550105
 20
-45.48335478554585
 30
0.0
 41
1.0
 10
89.34932018457809
 20
-44.92652820676314
 30
0.0
 41
0.9999999991335913
 10
89.34922958547533
 20
-44.36970163359344
 30
0.0
 41
1.0
 10
89.34915480148021
 20
-43.8128751096493
 30
0.0
 41
0.9999999966373804
 10
89.34917134545255
 20
-43.25604858092902
 30
0.0
 41
1.0
  0
ENDSEC
  0
SECTION
  2
OBJECTS
  0
DICTIONARY
  5
C
330
0
100
AcDbDictionary
  3
ACAD_GROUP
350
D
  3
ACAD_LAYOUT
350
1A
  3
ACAD_MLEADERSTYLE
350
1B3
  3
ACAD_MLINESTYLE
350
17
  3
ACAD_PLOTSETTINGS
350
19
  3
ACAD_VISUALSTYLE
350
2A
  3
ACDBHEADERROUNDTRIPXREC
350
191
  3
ACDBVARIABLEDICTIONARY
350
1B1
  0
DICTIONARY
  5
D
102
{ACAD_REACTORS
330
C
102
}
330
C
100
AcDbDictionary
  0
DICTIONARY
  5
1A
102
{ACAD_REACTORS
330
C
102
}
330
C
100
AcDbDictionary
  0
DICTIONARY
  5
1B3
102
{ACAD_REACTORS
330
C
102
}
330
C
100
AcDbDictionary
  0
DICTIONARY
  5
17
102
{ACAD_REACTORS
330
C
102
}
330
C
100
AcDbDictionary
  3
STANDARD
350
18
  0
DICTIONARY
  5
19
102
{ACAD_REACTORS
330
C
102
}
330
C
100
AcDbDictionary
  0
DICTIONARY
  5
2A
102
{ACAD_REACTORS
330
C
102
}
330
C
100
AcDbDictionary
  3
2DWIREFRAME
350
2F
  3
3D_HIDDEN
350
31
  3
3DWIREFRAME
350
30
  3
BASIC
350
32
  3
BRIGHTEN
350
36
  3
COLORCHANGE
350
3A
  3
CONCEPTUAL
350
34
  3
DIM
350
35
  3
FACEPATTERN
350
39
  3
FLAT
350
2B
  3
FLATWITHEDGES
350
2C
  3
GOURAUD
350
2D
  3
GOURAUDWITHEDGES
350
2E
  3
LINEPATTERN
350
38
  3
REALISTIC
350
33
  3
THICKEN
350
37
  0
DICTIONARY
  5
191
102
{ACAD_REACTORS
330
C
102
}
330
C
100
AcDbDictionary
  3
CEPSNTYPE
350
19A
  3
DIMSTYLEDATA
350
1B0
  3
FINGERPRINTGUID
350
19B
  3
HYPERLINKBASE
350
194
  3
INSUNITS
350
199
  3
LAYOUTDICT
350
196
  3
LWETCUNION
350
198
  3
PLOTSETDICT
350
197
  3
PSVPSCALE
350
19D
  3
PUCSBASE
350
1A0
  3
PUCSORGBACK
350
1A6
  3
PUCSORGBOTTOM
350
1A2
  3
PUCSORGFRONT
350
1A5
  3
PUCSORGLEFT
350
1A3
  3
PUCSORGRIGHT
350
1A4
  3
PUCSORGTOP
350
1A1
  3
PUCSORTHOREF
350
19E
  3
PUCSORTHOVIEW
350
19F
  3
STYLESHEET
350
195
  3
TSTACKALIGN
350
192
  3
TSTACKSIZE
350
193
  3
UCSBASE
350
1A9
  3
UCSORGBACK
350
1AF
  3
UCSORGBOTTOM
350
1AB
  3
UCSORGFRONT
350
1AE
  3
UCSORGLEFT
350
1AC
  3
UCSORGRIGHT
350
1AD
  3
UCSORGTOP
350
1AA
  3
UCSORTHOREF
350
1A7
  3
UCSORTHOVIEW
350
1A8
  3
VERSIONGUID
350
19C
  0
DICTIONARY
  5
1B1
102
{ACAD_REACTORS
330
C
102
}
330
C
100
AcDbDictionary
  0
MLINESTYLE
  5
18
102
{ACAD_REACTORS
330
17
102
}
330
17
100
AcDbMlineStyle
  2
Standard
 70
     0
  3

 62
   256
 51
90.0
 52
90.0
 71
     2
 49
0.5
 62
   256
  6
BYLAYER
 49
-0.5
 62
   256
  6
BYLAYER
  0
ACAD_PROXY_OBJECT
  5
2F
102
{ACAD_REACTORS
330
2A
102
}
330
2A
100
AcDbProxyObject
 90
      499
 91
      501
 93
      436
310
42CC9915DA5C99599C985B595049028333333333333E3BF0000000000000FB0107901411070040501600405405064090741402480A0340
1001
ACAD
1000
AcDbSavedByObjectVersion
1070
     0
  0
ACAD_PROXY_OBJECT
  5
31
102
{ACAD_REACTORS
330
2A
102
}
330
2A
100
AcDbProxyObject
 90
      499
 91
      501
 93
      500
310
424CD108121A5919195B90640502408333333333333E3BF0000000000000FB01079024090700405020000000000001110200405405064090740C02480A0340
1001
ACAD
1000
AcDbSavedByObjectVersion
1070
     0
  0
ACAD_PROXY_OBJECT
  5
30
102
{ACAD_REACTORS
330
2A
102
}
330
2A
100
AcDbProxyObject
 90
      499
 91
      501
 93
      436
310
42CCD915DA5C99599C985B595059028333333333333E3BF0000000000000FB0107901411070040501600405405064090741402480A0340
1001
ACAD
1000
AcDbSavedByObjectVersion
1070
     0
  0
ACAD_PROXY_OBJECT
  5
32
102
{ACAD_REACTORS
330
2A
102
}
330
2A
100
AcDbProxyObject
 90
      499
 91
      501
 93
      388
310
4150985CDA58D07406404333333333333E3BF0000000000000FB0107A41107004050150841D405064090741402480A0350
1001
ACAD
1000
AcDbSavedByObjectVersion
1070
     0
  0
ACAD_PROXY_OBJECT
  5
36
102
{ACAD_REACTORS
330
2A
102
}
330
2A
100
AcDbProxyObject
 90
      499
 91
      501
 93
      428
310
42109C9A59DA1D195B90C409028333333333333E3BF0000000000000FB010790141107004050150841D405064090741402480A029950
1001
ACAD
1000
AcDbSavedByObjectVersion
1070
     0
  0
ACAD_PROXY_OBJECT
  5
3A
102
{ACAD_REACTORS
330
2A
102
}
330
2A
100
AcDbProxyObject
 90
      499
 91
      501
 93
      452
310
42D0DBDB1BDC90DA185B99D95104090240C333333333333E3BF0000000000000FB0108901411070040501508421405064090741402480A0350
1001
ACAD
1000
AcDbSavedByObjectVersion
1070
     0
  0
ACAD_PROXY_OBJECT
  5
34
102
{ACAD_REACTORS
330
2A
102
}
330
2A
100
AcDbProxyObject
 90
      499
 91
      501
 93
      500
310
4290DBDB98D95C1D1D585B10940D028333333333333E3BF0000000000000FB0107902409070040501000000000000111010841D405064090740C02480A0340
1001
ACAD
1000
AcDbSavedByObjectVersion
1070
     0
  0
ACAD_PROXY_OBJECT
  5
35
102
{ACAD_REACTORS
330
2A
102
}
330
2A
100
AcDbProxyObject
 90
      499
 91
      501
 93
      412
310
40D11A5B50B409028333333333333E3BF0000000000000FB010790141107004050150841D405064090741402480A02677FFFFFD0
1001
ACAD
1000
AcDbSavedByObjectVersion
1070
     0
  0
ACAD_PROXY_OBJECT
  5
39
102
{ACAD_REACTORS
330
2A
102
}
330
2A
100
AcDbProxyObject
 90
      499
 91
      501
 93
      444
310
42D19858D95C185D1D195C9B90F409028333333333333E3BF0000000000000FB010790141107004050150841D405064090741402480A0350
1001
ACAD
1000
AcDbSavedByObjectVersion
1070
     0
  0
ACAD_PROXY_OBJECT
  5
2B
102
{ACAD_REACTORS
330
2A
102
}
330
2A
100
AcDbProxyObject
 90
      499
 91
      501
 93
      388
310
41119B185D240901404333333333333E3BF0000000000000F9010740A41107004050150841D405064090741402480A1B50
1001
ACAD
1000
AcDbSavedByObjectVersion
1070
     0
  0
ACAD_PROXY_OBJECT
  5
2C
102
{ACAD_REACTORS
330
2A
102
}
330
2A
100
AcDbProxyObject
 90
      499
 91
      501
 93
      476
310
43519B185D15DA5D1A115919D95CD0140901404333333333333E3BF0000000000000F9010740901411070040501600405405064090741402480A1B50
1001
ACAD
1000
AcDbSavedByObjectVersion
1070
     0
  0
ACAD_PROXY_OBJECT
  5
2D
102
{ACAD_REACTORS
330
2A
102
}
330
2A
100
AcDbProxyObject
 90
      499
 91
      501
 93
      412
310
41D1DBDD5C985D5910240902404333333333333E3BF0000000000000F9010740A411070040501641D405064090741402480A1B50
1001
ACAD
1000
AcDbSavedByObjectVersion
1070
     0
  0
ACAD_PROXY_OBJECT
  5
2E
102
{ACAD_REACTORS
330
2A
102
}
330
2A
100
AcDbProxyObject
 90
      499
 91
      501
 93
      500
310
4411DBDD5C985D5915DA5D1A115919D95CD0340902404333333333333E3BF0000000000000F9010740901411070040501600405405064090741402480A1B50
1001
ACAD
1000
AcDbSavedByObjectVersion
1070
     0
  0
ACAD_PROXY_OBJECT
  5
38
102
{ACAD_REACTORS
330
2A
102
}
330
2A
100
AcDbProxyObject
 90
      499
 91
      501
 93
      444
310
42D31A5B995C185D1D195C9B90E409028333333333333E3BF0000000000000FB010790141107004050750841D405064090741402483A0350
1001
ACAD
1000
AcDbSavedByObjectVersion
1070
     0
  0
ACAD_PROXY_OBJECT
  5
33
102
{ACAD_REACTORS
330
2A
102
}
330
2A
100
AcDbProxyObject
 90
      499
 91
      501
 93
      420
310
425499585B1A5CDD1A58D08409028333333333333E3BF0000000000000FB01079019070040501508421405064090741402480A1B40
1001
ACAD
1000
AcDbSavedByObjectVersion
1070
     0
  0
ACAD_PROXY_OBJECT
  5
37
102
{ACAD_REACTORS
330
2A
102
}
330
2A
100
AcDbProxyObject
 90
      499
 91
      501
 93
      412
310
41D51A1A58DAD95B90D409028333333333333E3BF0000000000000FB010790141107004050150C41D405064090741402480A0350
1001
ACAD
1000
AcDbSavedByObjectVersion
1070
     0
  0
ACAD_PROXY_OBJECT
  5
19A
102
{ACAD_REACTORS
330
191
102
}
330
191
100
AcDbProxyObject
 90
      499
 91
      502
 93
       58
310
4196800000000000
  0
ACAD_PROXY_OBJECT
  5
1B0
102
{ACAD_REACTORS
330
191
102
}
330
191
100
AcDbProxyObject
 90
      499
 91
      502
 93
      370
310
4B7A00C180079114D51653117A80C040079ECB8105C0518000800B811500550044400000000000003A80C040079F40
  0
ACAD_PROXY_OBJECT
  5
19B
102
{ACAD_REACTORS
330
191
102
}
330
191
100
AcDbProxyObject
 90
      499
 91
      502
 93
      354
310
4AC0400980079ECD108C8DD14C0E514B4D518E4CCB4D0E4D510B504C4D8D8B4E104E0C8D910C114E0D90CDDF40
  0
ACAD_PROXY_OBJECT
  5
194
102
{ACAD_REACTORS
330
191
102
}
330
191
100
AcDbProxyObject
 90
      499
 91
      502
 93
       50
310
41404000000780
  0
ACAD_PROXY_OBJECT
  5
199
102
{ACAD_REACTORS
330
191
102
}
330
191
100
AcDbProxyObject
 90
      499
 91
      502
 93
       58
310
4196800100000000
  0
ACAD_PROXY_OBJECT
  5
196
102
{ACAD_REACTORS
330
191
102
}
330
191
100
AcDbProxyObject
 90
      499
 91
      502
 93
       90
310
429500468000000000000000
  0
ACAD_PROXY_OBJECT
  5
198
102
{ACAD_REACTORS
330
191
102
}
330
191
100
AcDbProxyObject
 90
      499
 91
      502
 93
       58
310
419680074A800000
  0
ACAD_PROXY_OBJECT
  5
197
102
{ACAD_REACTORS
330
191
102
}
330
191
100
AcDbProxyObject
 90
      499
 91
      502
 93
       90
310
429500464000000000000000
  0
ACAD_PROXY_OBJECT
  5
19D
102
{ACAD_REACTORS
330
191
102
}
330
191
100
AcDbProxyObject
 90
      499
 91
      502
 93
       90
310
428A00000000000000000000
  0
ACAD_PROXY_OBJECT
  5
1A0
102
{ACAD_REACTORS
330
191
102
}
330
191
100
AcDbProxyObject
 90
      499
 91
      502
 93
       90
310
429500400000000000000000
  0
ACAD_PROXY_OBJECT
  5
1A6
102
{ACAD_REACTORS
330
191
102
}
330
191
100
AcDbProxyObject
 90
      499
 91
      502
 93
      218
310
46828000000000000000000000000000000000000000000000000000
  0
ACAD_PROXY_OBJECT
  5
1A2
102
{ACAD_REACTORS
330
191
102
}
330
191
100
AcDbProxyObject
 90
      499
 91
      502
 93
      218
310
46828000000000000000000000000000000000000000000000000000
  0
ACAD_PROXY_OBJECT
  5
1A5
102
{ACAD_REACTORS
330
191
102
}
330
191
100
AcDbProxyObject
 90
      499
 91
      502
 93
      218
310
46828000000000000000000000000000000000000000000000000000
  0
ACAD_PROXY_OBJECT
  5
1A3
102
{ACAD_REACTORS
330
191
102
}
330
191
100
AcDbProxyObject
 90
      499
 91
      502
 93
      218
310
46828000000000000000000000000000000000000000000000000000
  0
ACAD_PROXY_OBJECT
  5
1A4
102
{ACAD_REACTORS
330
191
102
}
330
191
100
AcDbProxyObject
 90
      499
 91
      502
 93
      218
310
46828000000000000000000000000000000000000000000000000000
  0
ACAD_PROXY_OBJECT
  5
1A1
102
{ACAD_REACTORS
330
191
102
}
330
191
100
AcDbProxyObject
 90
      499
 91
      502
 93
      218
310
46828000000000000000000000000000000000000000000000000000
  0
ACAD_PROXY_OBJECT
  5
19E
102
{ACAD_REACTORS
330
191
102
}
330
191
100
AcDbProxyObject
 90
      499
 91
      502
 93
       90
310
429500400000000000000000
  0
ACAD_PROXY_OBJECT
  5
19F
102
{ACAD_REACTORS
330
191
102
}
330
191
100
AcDbProxyObject
 90
      499
 91
      502
 93
       42
310
411180000000
  0
ACAD_PROXY_OBJECT
  5
195
102
{ACAD_REACTORS
330
191
102
}
330
191
100
AcDbProxyObject
 90
      499
 91
      502
 93
       50
310
41404000000780
  0
ACAD_PROXY_OBJECT
  5
192
102
{ACAD_REACTORS
330
191
102
}
330
191
100
AcDbProxyObject
 90
      499
 91
      502
 93
       58
310
4196800040000000
  0
ACAD_PROXY_OBJECT
  5
193
102
{ACAD_REACTORS
330
191
102
}
330
191
100
AcDbProxyObject
 90
      499
 91
      502
 93
       58
310
4196801180000000
  0
ACAD_PROXY_OBJECT
  5
1A9
102
{ACAD_REACTORS
330
191
102
}
330
191
100
AcDbProxyObject
 90
      499
 91
      502
 93
       90
310
429500400000000000000000
  0
ACAD_PROXY_OBJECT
  5
1AF
102
{ACAD_REACTORS
330
191
102
}
330
191
100
AcDbProxyObject
 90
      499
 91
      502
 93
      218
310
46828000000000000000000000000000000000000000000000000000
  0
ACAD_PROXY_OBJECT
  5
1AB
102
{ACAD_REACTORS
330
191
102
}
330
191
100
AcDbProxyObject
 90
      499
 91
      502
 93
      218
310
46828000000000000000000000000000000000000000000000000000
  0
ACAD_PROXY_OBJECT
  5
1AE
102
{ACAD_REACTORS
330
191
102
}
330
191
100
AcDbProxyObject
 90
      499
 91
      502
 93
      218
310
46828000000000000000000000000000000000000000000000000000
  0
ACAD_PROXY_OBJECT
  5
1AC
102
{ACAD_REACTORS
330
191
102
}
330
191
100
AcDbProxyObject
 90
      499
 91
      502
 93
      218
310
46828000000000000000000000000000000000000000000000000000
  0
ACAD_PROXY_OBJECT
  5
1AD
102
{ACAD_REACTORS
330
191
102
}
330
191
100
AcDbProxyObject
 90
      499
 91
      502
 93
      218
310
46828000000000000000000000000000000000000000000000000000
  0
ACAD_PROXY_OBJECT
  5
1AA
102
{ACAD_REACTORS
330
191
102
}
330
191
100
AcDbProxyObject
 90
      499
 91
      502
 93
      218
310
46828000000000000000000000000000000000000000000000000000
  0
ACAD_PROXY_OBJECT
  5
1A7
102
{ACAD_REACTORS
330
191
102
}
330
191
100
AcDbProxyObject
 90
      499
 91
      502
 93
       90
310
429500400000000000000000
  0
ACAD_PROXY_OBJECT
  5
1A8
102
{ACAD_REACTORS
330
191
102
}
330
191
100
AcDbProxyObject
 90
      499
 91
      502
 93
       42
310
411180000000
  0
ACAD_PROXY_OBJECT
  5
19C
102
{ACAD_REACTORS
330
191
102
}
330
191
100
AcDbProxyObject
 90
      499
 91
      502
 93
      354
310
4AC0400980079ED19051508C50CCCC8B514C0C4E4B4C4C510D4B4E4C8E508B4C0C10CC11118C8D4D9150CD1F40
  0
ENDSEC
  0
EOF
