  0
SECTION
  2
HEADER
  9
$ACADVER
  1
AC1021
  9
$ACADMAINTVER
 70
    25
  9
$DWGCODEPAGE
  3
ANSI_1252
  9
$INSBASE
 10
0.0
 20
0.0
 30
0.0
  9
$EXTMIN
 10
-3.887748031496063
 20
-0.0639606299212598
 30
0.0
  9
$EXTMAX
 10
-0.766007874015748
 20
5.260031496062992
 30
0.0
  9
$LIMMIN
 10
0.0
 20
0.0
  9
$LIMMAX
 10
12.0
 20
9.0
  9
$ORTHOMODE
 70
     0
  9
$REGENMODE
 70
     1
  9
$FILLMODE
 70
     1
  9
$QTEXTMODE
 70
     0
  9
$MIRRTEXT
 70
     1
  9
$LTSCALE
 40
1.0
  9
$ATTMODE
 70
     1
  9
$TEXTSIZE
 40
0.2
  9
$TRACEWID
 40
0.05
  9
$TEXTSTYLE
  7
Standard
  9
$CLAYER
  8
0
  9
$CELTYPE
  6
ByLayer
  9
$CECOLOR
 62
   256
  9
$CELTSCALE
 40
1.0
  9
$DISPSILH
 70
     0
  9
$DIMSCALE
 40
1.0
  9
$DIMASZ
 40
0.18
  9
$DIMEXO
 40
0.0625
  9
$DIMDLI
 40
0.38
  9
$DIMRND
 40
0.0
  9
$DIMDLE
 40
0.0
  9
$DIMEXE
 40
0.18
  9
$DIMTP
 40
0.0
  9
$DIMTM
 40
0.0
  9
$DIMTXT
 40
0.18
  9
$DIMCEN
 40
0.09
  9
$DIMTSZ
 40
0.0
  9
$DIMTOL
 70
     0
  9
$DIMLIM
 70
     0
  9
$DIMTIH
 70
     1
  9
$DIMTOH
 70
     1
  9
$DIMSE1
 70
     0
  9
$DIMSE2
 70
     0
  9
$DIMTAD
 70
     0
  9
$DIMZIN
 70
     0
  9
$DIMBLK
  1

  9
$DIMASO
 70
     1
  9
$DIMSHO
 70
     1
  9
$DIMPOST
  1

  9
$DIMAPOST
  1

  9
$DIMALT
 70
     0
  9
$DIMALTD
 70
     2
  9
$DIMALTF
 40
25.4
  9
$DIMLFAC
 40
1.0
  9
$DIMTOFL
 70
     0
  9
$DIMTVP
 40
0.0
  9
$DIMTIX
 70
     0
  9
$DIMSOXD
 70
     0
  9
$DIMSAH
 70
     0
  9
$DIMBLK1
  1

  9
$DIMBLK2
  1

  9
$DIMSTYLE
  2
Standard
  9
$DIMCLRD
 70
     0
  9
$DIMCLRE
 70
     0
  9
$DIMCLRT
 70
     0
  9
$DIMTFAC
 40
1.0
  9
$DIMGAP
 40
0.09
  9
$DIMJUST
 70
     0
  9
$DIMSD1
 70
     0
  9
$DIMSD2
 70
     0
  9
$DIMTOLJ
 70
     1
  9
$DIMTZIN
 70
     0
  9
$DIMALTZ
 70
     0
  9
$DIMALTTZ
 70
     0
  9
$DIMUPT
 70
     0
  9
$DIMDEC
 70
     4
  9
$DIMTDEC
 70
     4
  9
$DIMALTU
 70
     2
  9
$DIMALTTD
 70
     2
  9
$DIMTXSTY
  7
Standard
  9
$DIMAUNIT
 70
     0
  9
$DIMADEC
 70
     0
  9
$DIMALTRND
 40
0.0
  9
$DIMAZIN
 70
     0
  9
$DIMDSEP
 70
    46
  9
$DIMATFIT
 70
     3
  9
$DIMFRAC
 70
     0
  9
$DIMLDRBLK
  1

  9
$DIMLUNIT
 70
     2
  9
$DIMLWD
 70
    -2
  9
$DIMLWE
 70
    -2
  9
$DIMTMOVE
 70
     0
  9
$DIMFXL
 40
1.0
  9
$DIMFXLON
 70
     0
  9
$DIMJOGANG
 40
0.7853981633974483
  9
$DIMTFILL
 70
     0
  9
$DIMTFILLCLR
 70
     0
  9
$DIMARCSYM
 70
     0
  9
$DIMLTYPE
  6

  9
$DIMLTEX1
  6

  9
$DIMLTEX2
  6

  9
$LUNITS
 70
     2
  9
$LUPREC
 70
     4
  9
$SKETCHINC
 40
0.1
  9
$FILLETRAD
 40
0.5
  9
$AUNITS
 70
     0
  9
$AUPREC
 70
     0
  9
$MENU
  1
.
  9
$ELEVATION
 40
0.0
  9
$PELEVATION
 40
0.0
  9
$THICKNESS
 40
0.0
  9
$LIMCHECK
 70
     0
  9
$CHAMFERA
 40
0.5
  9
$CHAMFERB
 40
0.5
  9
$CHAMFERC
 40
1.0
  9
$CHAMFERD
 40
0.0
  9
$SKPOLY
 70
     0
  9
$TDCREATE
 40
2457687.573068681
  9
$TDUCREATE
 40
2457687.781402014
  9
$TDUPDATE
 40
2457687.573068692
  9
$TDUUPDATE
 40
2457687.781402025
  9
$TDINDWG
 40
0.0000000116
  9
$TDUSRTIMER
 40
0.0000000116
  9
$USRTIMER
 70
     1
  9
$ANGBASE
 50
0.0
  9
$ANGDIR
 70
     0
  9
$PDMODE
 70
     0
  9
$PDSIZE
 40
0.0
  9
$PLINEWID
 40
0.0
  9
$SPLFRAME
 70
     0
  9
$SPLINETYPE
 70
     6
  9
$SPLINESEGS
 70
     8
  9
$HANDSEED
  5
7C
  9
$SURFTAB1
 70
     6
  9
$SURFTAB2
 70
     6
  9
$SURFTYPE
 70
     6
  9
$SURFU
 70
     6
  9
$SURFV
 70
     6
  9
$UCSBASE
  2

  9
$UCSNAME
  2

  9
$UCSORG
 10
0.0
 20
0.0
 30
0.0
  9
$UCSXDIR
 10
1.0
 20
0.0
 30
0.0
  9
$UCSYDIR
 10
0.0
 20
1.0
 30
0.0
  9
$UCSORTHOREF
  2

  9
$UCSORTHOVIEW
 70
     0
  9
$UCSORGTOP
 10
0.0
 20
0.0
 30
0.0
  9
$UCSORGBOTTOM
 10
0.0
 20
0.0
 30
0.0
  9
$UCSORGLEFT
 10
0.0
 20
0.0
 30
0.0
  9
$UCSORGRIGHT
 10
0.0
 20
0.0
 30
0.0
  9
$UCSORGFRONT
 10
0.0
 20
0.0
 30
0.0
  9
$UCSORGBACK
 10
0.0
 20
0.0
 30
0.0
  9
$PUCSBASE
  2

  9
$PUCSNAME
  2

  9
$PUCSORG
 10
0.0
 20
0.0
 30
0.0
  9
$PUCSXDIR
 10
1.0
 20
0.0
 30
0.0
  9
$PUCSYDIR
 10
0.0
 20
1.0
 30
0.0
  9
$PUCSORTHOREF
  2

  9
$PUCSORTHOVIEW
 70
     0
  9
$PUCSORGTOP
 10
0.0
 20
0.0
 30
0.0
  9
$PUCSORGBOTTOM
 10
0.0
 20
0.0
 30
0.0
  9
$PUCSORGLEFT
 10
0.0
 20
0.0
 30
0.0
  9
$PUCSORGRIGHT
 10
0.0
 20
0.0
 30
0.0
  9
$PUCSORGFRONT
 10
0.0
 20
0.0
 30
0.0
  9
$PUCSORGBACK
 10
0.0
 20
0.0
 30
0.0
  9
$USERI1
 70
     0
  9
$USERI2
 70
     0
  9
$USERI3
 70
     0
  9
$USERI4
 70
     0
  9
$USERI5
 70
     0
  9
$USERR1
 40
0.0
  9
$USERR2
 40
0.0
  9
$USERR3
 40
0.0
  9
$USERR4
 40
0.0
  9
$USERR5
 40
0.0
  9
$WORLDVIEW
 70
     1
  9
$SHADEDGE
 70
     3
  9
$SHADEDIF
 70
    70
  9
$TILEMODE
 70
     1
  9
$MAXACTVP
 70
    64
  9
$PINSBASE
 10
0.0
 20
0.0
 30
0.0
  9
$PLIMCHECK
 70
     0
  9
$PEXTMIN
 10
1.000000000000000E+20
 20
1.000000000000000E+20
 30
1.000000000000000E+20
  9
$PEXTMAX
 10
-1.000000000000000E+20
 20
-1.000000000000000E+20
 30
-1.000000000000000E+20
  9
$PLIMMIN
 10
0.0
 20
0.0
  9
$PLIMMAX
 10
12.0
 20
9.0
  9
$UNITMODE
 70
     0
  9
$VISRETAIN
 70
     1
  9
$PLINEGEN
 70
     0
  9
$PSLTSCALE
 70
     1
  9
$TREEDEPTH
 70
  3020
  9
$CMLSTYLE
  2
Standard
  9
$CMLJUST
 70
     0
  9
$CMLSCALE
 40
1.0
  9
$PROXYGRAPHICS
 70
     1
  9
$MEASUREMENT
 70
     0
  9
$CELWEIGHT
370
    -1
  9
$ENDCAPS
280
     0
  9
$JOINSTYLE
280
     0
  9
$LWDISPLAY
290
     0
  9
$INSUNITS
 70
     1
  9
$HYPERLINKBASE
  1

  9
$STYLESHEET
  1

  9
$XEDIT
290
     1
  9
$CEPSNTYPE
380
     0
  9
$PSTYLEMODE
290
     1
  9
$FINGERPRINTGUID
  2
{7991C3DA-D9B2-4FF1-BBF0-A2B1488DB65D}
  9
$VERSIONGUID
  2
{FAEB1C32-E019-11D5-929B-00C0DF256EC4}
  9
$EXTNAMES
290
     1
  9
$PSVPSCALE
 40
0.0
  9
$OLESTARTUP
290
     0
  9
$SORTENTS
280
   127
  9
$INDEXCTL
280
     0
  9
$HIDETEXT
280
     1
  9
$XCLIPFRAME
290
     0
  9
$HALOGAP
280
     0
  9
$OBSCOLOR
 70
   257
  9
$OBSLTYPE
280
     0
  9
$INTERSECTIONDISPLAY
280
     0
  9
$INTERSECTIONCOLOR
 70
   257
  9
$DIMASSOC
280
     2
  9
$PROJECTNAME
  1

  9
$CAMERADISPLAY
290
     0
  9
$LENSLENGTH
 40
50.0
  9
$CAMERAHEIGHT
 40
0.0
  9
$STEPSPERSEC
 40
2.0
  9
$STEPSIZE
 40
6.0
  9
$3DDWFPREC
 40
2.0
  9
$PSOLWIDTH
 40
0.25
  9
$PSOLHEIGHT
 40
4.0
  9
$LOFTANG1
 40
1.570796326794897
  9
$LOFTANG2
 40
1.570796326794897
  9
$LOFTMAG1
 40
0.0
  9
$LOFTMAG2
 40
0.0
  9
$LOFTPARAM
 70
     7
  9
$LOFTNORMALS
280
     1
  9
$LATITUDE
 40
37.795
  9
$LONGITUDE
 40
-122.394
  9
$NORTHDIRECTION
 40
0.0
  9
$TIMEZONE
 70
 -8000
  9
$LIGHTGLYPHDISPLAY
280
     1
  9
$TILEMODELIGHTSYNCH
280
     1
  9
$SOLIDHIST
280
     1
  9
$SHOWHIST
280
     1
  9
$DWFFRAME
280
     2
  9
$DGNFRAME
280
     2
  9
$REALWORLDSCALE
290
     1
  9
$INTERFERECOLOR
 62
   256
  9
$CSHADOW
280
     0
  9
$SHADOWPLANELOCATION
 40
0.0
  0
ENDSEC
  0
SECTION
  2
CLASSES
  0
CLASS
  1
ACDBDICTIONARYWDFLT
  2
AcDbDictionaryWithDefault
  3
ObjectDBX Classes
 90
        0
 91
        4
280
     0
281
     0
  0
CLASS
  1
VISUALSTYLE
  2
AcDbVisualStyle
  3
ObjectDBX Classes
 90
     4095
 91
        4
280
     0
281
     0
  0
CLASS
  1
MATERIAL
  2
AcDbMaterial
  3
ObjectDBX Classes
 90
     1153
 91
        4
280
     0
281
     0
  0
ENDSEC
  0
SECTION
  2
TABLES
  0
TABLE
  2
VPORT
  5
8
330
0
100
AcDbSymbolTable
 70
     1
  0
VPORT
  5
29
330
8
100
AcDbSymbolTableRecord
100
AcDbViewportTableRecord
  2
*Active
 70
     0
 10
0.0
 20
0.0
 11
1.0
 21
1.0
 12
10.42990654205607
 22
4.5
 13
0.0
 23
0.0
 14
0.5
 24
0.5
 15
0.5
 25
0.5
 16
0.0
 26
0.0
 36
1.0
 17
0.0
 27
0.0
 37
0.0
 40
9.0
 41
1.972972972850329
 42
50.0
 43
0.0
 44
0.0
 50
0.0
 51
0.0
 71
     0
 72
   100
 73
     1
 74
     3
 75
     0
 76
     0
 77
     0
 78
     0
281
     0
 65
     1
110
0.0
120
0.0
130
0.0
111
1.0
121
0.0
131
0.0
112
0.0
122
1.0
132
0.0
 79
     0
146
0.0
 60
     3
 61
     5
292
     1
282
     1
141
0.0
142
0.0
 63
   250
  0
ENDTAB
  0
TABLE
  2
LTYPE
  5
5
330
0
100
AcDbSymbolTable
 70
     1
  0
LTYPE
  5
14
330
5
100
AcDbSymbolTableRecord
100
AcDbLinetypeTableRecord
  2
ByBlock
 70
     0
  3

 72
    65
 73
     0
 40
0.0
  0
LTYPE
  5
15
330
5
100
AcDbSymbolTableRecord
100
AcDbLinetypeTableRecord
  2
ByLayer
 70
     0
  3

 72
    65
 73
     0
 40
0.0
  0
LTYPE
  5
16
330
5
100
AcDbSymbolTableRecord
100
AcDbLinetypeTableRecord
  2
Continuous
 70
     0
  3
Solid line
 72
    65
 73
     0
 40
0.0
  0
ENDTAB
  0
TABLE
  2
LAYER
  5
2
330
0
100
AcDbSymbolTable
 70
     2
  0
LAYER
  5
10
330
2
100
AcDbSymbolTableRecord
100
AcDbLayerTableRecord
  2
0
 70
     0
 62
     7
  6
Continuous
370
    -3
390
F
347
3E
  0
LAYER
  5
40
330
2
100
AcDbSymbolTableRecord
100
AcDbLayerTableRecord
  2
Layer 1
 70
     0
 62
     7
  6
Continuous
370
    -3
390
F
347
3E
  0
ENDTAB
  0
TABLE
  2
STYLE
  5
3
330
0
100
AcDbSymbolTable
 70
     1
  0
STYLE
  5
11
330
3
100
AcDbSymbolTableRecord
100
AcDbTextStyleTableRecord
  2
Standard
 70
     0
 40
0.0
 41
1.0
 50
0.0
 71
     0
 42
0.2
  3
txt
  4

  0
ENDTAB
  0
TABLE
  2
VIEW
  5
6
330
0
100
AcDbSymbolTable
 70
     0
  0
ENDTAB
  0
TABLE
  2
UCS
  5
7
330
0
100
AcDbSymbolTable
 70
     0
  0
ENDTAB
  0
TABLE
  2
APPID
  5
9
330
0
100
AcDbSymbolTable
 70
     2
  0
APPID
  5
12
330
9
100
AcDbSymbolTableRecord
100
AcDbRegAppTableRecord
  2
ACAD
 70
     0
  0
APPID
  5
3F
330
9
100
AcDbSymbolTableRecord
100
AcDbRegAppTableRecord
  2
ODA
 70
     0
  0
ENDTAB
  0
TABLE
  2
DIMSTYLE
  5
A
330
0
100
AcDbSymbolTable
 70
     1
100
AcDbDimStyleTable
  0
DIMSTYLE
105
27
330
A
100
AcDbSymbolTableRecord
100
AcDbDimStyleTableRecord
  2
Standard
 70
     0
178
     0
340
11
  0
ENDTAB
  0
TABLE
  2
BLOCK_RECORD
  5
1
330
0
100
AcDbSymbolTable
 70
     1
  0
BLOCK_RECORD
  5
1F
330
1
100
AcDbSymbolTableRecord
100
AcDbBlockTableRecord
  2
*Model_Space
340
22
 70
     0
280
     1
281
     0
  0
BLOCK_RECORD
  5
1B
330
1
100
AcDbSymbolTableRecord
100
AcDbBlockTableRecord
  2
*Paper_Space
340
1E
 70
     0
280
     1
281
     0
  0
BLOCK_RECORD
  5
23
330
1
100
AcDbSymbolTableRecord
100
AcDbBlockTableRecord
  2
*Paper_Space0
340
26
 70
     0
280
     1
281
     0
  0
ENDTAB
  0
ENDSEC
  0
SECTION
  2
BLOCKS
  0
BLOCK
  5
20
330
1F
100
AcDbEntity
  8
0
100
AcDbBlockBegin
  2
*Model_Space
 70
     0
 10
0.0
 20
0.0
 30
0.0
  3
*Model_Space
  1

  0
ENDBLK
  5
21
330
1F
100
AcDbEntity
  8
0
100
AcDbBlockEnd
  0
BLOCK
  5
1C
330
1B
100
AcDbEntity
 67
     1
  8
0
100
AcDbBlockBegin
  2
*Paper_Space
 70
     0
 10
0.0
 20
0.0
 30
0.0
  3
*Paper_Space
  1

  0
ENDBLK
  5
1D
330
1B
100
AcDbEntity
 67
     1
  8
0
100
AcDbBlockEnd
  0
BLOCK
  5
24
330
23
100
AcDbEntity
  8
0
100
AcDbBlockBegin
  2
*Paper_Space0
 70
     0
 10
0.0
 20
0.0
 30
0.0
  3
*Paper_Space0
  1

  0
ENDBLK
  5
25
330
23
100
AcDbEntity
  8
0
100
AcDbBlockEnd
  0
ENDSEC
  0
SECTION
  2
ENTITIES
  0
SPLINE
  5
41
330
1F
100
AcDbEntity
  8
Layer 1
 62
     3
370
     9
100
AcDbSpline
210
0.0
220
0.0
230
1.0
 70
    11
 71
     3
 72
    48
 73
    44
 74
     0
 42
0.0000000001
 43
0.0000000001
 40
0.0
 40
0.0
 40
0.0
 40
0.0
 40
0.0833333333333333
 40
0.0833333333333333
 40
0.0833333333333333
 40
0.0833333333333333
 40
0.1666666666666667
 40
0.1666666666666667
 40
0.1666666666666667
 40
0.1666666666666667
 40
0.25
 40
0.25
 40
0.25
 40
0.25
 40
0.3333333333333333
 40
0.3333333333333333
 40
0.3333333333333333
 40
0.3333333333333333
 40
0.4166666666666667
 40
0.4166666666666667
 40
0.4166666666666667
 40
0.4166666666666667
 40
0.5
 40
0.5
 40
0.5
 40
0.5
 40
0.5833333333333334
 40
0.5833333333333334
 40
0.5833333333333334
 40
0.5833333333333334
 40
0.6666666666666666
 40
0.6666666666666666
 40
0.6666666666666666
 40
0.6666666666666666
 40
0.75
 40
0.75
 40
0.75
 40
0.75
 40
0.8333333333333334
 40
0.8333333333333334
 40
0.8333333333333334
 40
0.8333333333333334
 40
1.0
 40
1.0
 40
1.0
 40
1.0
 10
-3.486393700787402
 20
2.257409448818898
 30
0.0
 10
-3.486393700787402
 20
2.257409448818898
 30
0.0
 10
-3.488566929133858
 20
2.248748031496063
 30
0.0
 10
-3.488566929133858
 20
2.248748031496063
 30
0.0
 10
-3.488566929133858
 20
2.248748031496063
 30
0.0
 10
-3.488566929133858
 20
2.248748031496063
 30
0.0
 10
-3.508358267716535
 20
2.190374015748032
 30
0.0
 10
-3.508358267716535
 20
2.190374015748032
 30
0.0
 10
-3.508358267716535
 20
2.190374015748032
 30
0.0
 10
-3.508358267716535
 20
2.190374015748032
 30
0.0
 10
-3.532842519685039
 20
2.133744094488189
 30
0.0
 10
-3.532842519685039
 20
2.133744094488189
 30
0.0
 10
-3.532842519685039
 20
2.133744094488189
 30
0.0
 10
-3.532842519685039
 20
2.133744094488189
 30
0.0
 10
-3.561822834645669
 20
2.079291338582677
 30
0.0
 10
-3.561822834645669
 20
2.079291338582677
 30
0.0
 10
-3.561822834645669
 20
2.079291338582677
 30
0.0
 10
-3.561822834645669
 20
2.079291338582677
 30
0.0
 10
-3.595110236220473
 20
2.027377952755906
 30
0.0
 10
-3.595110236220473
 20
2.027377952755906
 30
0.0
 10
-3.595110236220473
 20
2.027377952755906
 30
0.0
 10
-3.595110236220473
 20
2.027377952755906
 30
0.0
 10
-3.62840157480315
 20
2.079291338582677
 30
0.0
 10
-3.62840157480315
 20
2.079291338582677
 30
0.0
 10
-3.62840157480315
 20
2.079291338582677
 30
0.0
 10
-3.62840157480315
 20
2.079291338582677
 30
0.0
 10
-3.657374015748032
 20
2.133732283464567
 30
0.0
 10
-3.657374015748032
 20
2.133732283464567
 30
0.0
 10
-3.657374015748032
 20
2.133732283464567
 30
0.0
 10
-3.657374015748032
 20
2.133732283464567
 30
0.0
 10
-3.68184251968504
 20
2.190334645669291
 30
0.0
 10
-3.68184251968504
 20
2.190334645669291
 30
0.0
 10
-3.68184251968504
 20
2.190334645669291
 30
0.0
 10
-3.68184251968504
 20
2.190334645669291
 30
0.0
 10
-3.701653543307087
 20
2.248740157480315
 30
0.0
 10
-3.701653543307087
 20
2.248740157480315
 30
0.0
 10
-3.701653543307087
 20
2.248740157480315
 30
0.0
 10
-3.701653543307087
 20
2.248740157480315
 30
0.0
 10
-3.703830708661418
 20
2.257409448818898
 30
0.0
 10
-3.703830708661418
 20
2.257409448818898
 30
0.0
 10
-3.703830708661418
 20
2.257409448818898
 30
0.0
 10
-3.703830708661418
 20
2.257409448818898
 30
0.0
 10
-3.486393700787402
 20
2.257409448818898
 30
0.0
 10
-3.486393700787402
 20
2.257409448818898
 30
0.0
  0
SPLINE
  5
42
330
1F
100
AcDbEntity
  8
Layer 1
 62
     5
370
     9
100
AcDbSpline
210
0.0
220
0.0
230
1.0
 70
    11
 71
     3
 72
   120
 73
   116
 74
     0
 42
0.0000000001
 43
0.0000000001
 40
0.0
 40
0.0
 40
0.0
 40
0.0
 40
0.0333333333333333
 40
0.0333333333333333
 40
0.0333333333333333
 40
0.0333333333333333
 40
0.0666666666666667
 40
0.0666666666666667
 40
0.0666666666666667
 40
0.0666666666666667
 40
0.1
 40
0.1
 40
0.1
 40
0.1
 40
0.1333333333333333
 40
0.1333333333333333
 40
0.1333333333333333
 40
0.1333333333333333
 40
0.1666666666666667
 40
0.1666666666666667
 40
0.1666666666666667
 40
0.1666666666666667
 40
0.2
 40
0.2
 40
0.2
 40
0.2
 40
0.2333333333333333
 40
0.2333333333333333
 40
0.2333333333333333
 40
0.2333333333333333
 40
0.2666666666666667
 40
0.2666666666666667
 40
0.2666666666666667
 40
0.2666666666666667
 40
0.3
 40
0.3
 40
0.3
 40
0.3
 40
0.3333333333333333
 40
0.3333333333333333
 40
0.3333333333333333
 40
0.3333333333333333
 40
0.3666666666666666
 40
0.3666666666666666
 40
0.3666666666666666
 40
0.3666666666666666
 40
0.4
 40
0.4
 40
0.4
 40
0.4
 40
0.4333333333333333
 40
0.4333333333333333
 40
0.4333333333333333
 40
0.4333333333333333
 40
0.4666666666666667
 40
0.4666666666666667
 40
0.4666666666666667
 40
0.4666666666666667
 40
0.5
 40
0.5
 40
0.5
 40
0.5
 40
0.5333333333333333
 40
0.5333333333333333
 40
0.5333333333333333
 40
0.5333333333333333
 40
0.5666666666666667
 40
0.5666666666666667
 40
0.5666666666666667
 40
0.5666666666666667
 40
0.6
 40
0.6
 40
0.6
 40
0.6
 40
0.6333333333333333
 40
0.6333333333333333
 40
0.6333333333333333
 40
0.6333333333333333
 40
0.6666666666666666
 40
0.6666666666666666
 40
0.6666666666666666
 40
0.6666666666666666
 40
0.7
 40
0.7
 40
0.7
 40
0.7
 40
0.7333333333333333
 40
0.7333333333333333
 40
0.7333333333333333
 40
0.7333333333333333
 40
0.7666666666666667
 40
0.7666666666666667
 40
0.7666666666666667
 40
0.7666666666666667
 40
0.8
 40
0.8
 40
0.8
 40
0.8
 40
0.8333333333333334
 40
0.8333333333333334
 40
0.8333333333333334
 40
0.8333333333333334
 40
0.8666666666666667
 40
0.8666666666666667
 40
0.8666666666666667
 40
0.8666666666666667
 40
0.9
 40
0.9
 40
0.9
 40
0.9
 40
0.9333333333333333
 40
0.9333333333333333
 40
0.9333333333333333
 40
0.9333333333333333
 40
1.0
 40
1.0
 40
1.0
 40
1.0
 10
-3.304334645669291
 20
2.625267716535433
 30
0.0
 10
-3.304334645669291
 20
2.625267716535433
 30
0.0
 10
-3.315311023622047
 20
2.494570866141732
 30
0.0
 10
-3.315311023622047
 20
2.494570866141732
 30
0.0
 10
-3.315311023622047
 20
2.494570866141732
 30
0.0
 10
-3.315311023622047
 20
2.494570866141732
 30
0.0
 10
-3.336830708661418
 20
2.365291338582677
 30
0.0
 10
-3.336830708661418
 20
2.365291338582677
 30
0.0
 10
-3.336830708661418
 20
2.365291338582677
 30
0.0
 10
-3.336830708661418
 20
2.365291338582677
 30
0.0
 10
-3.368724409448819
 20
2.238220472440945
 30
0.0
 10
-3.368724409448819
 20
2.238220472440945
 30
0.0
 10
-3.368724409448819
 20
2.238220472440945
 30
0.0
 10
-3.368724409448819
 20
2.238220472440945
 30
0.0
 10
-3.410779527559055
 20
2.114185039370079
 30
0.0
 10
-3.410779527559055
 20
2.114185039370079
 30
0.0
 10
-3.410779527559055
 20
2.114185039370079
 30
0.0
 10
-3.410779527559055
 20
2.114185039370079
 30
0.0
 10
-3.462803149606299
 20
1.993858267716536
 30
0.0
 10
-3.462803149606299
 20
1.993858267716536
 30
0.0
 10
-3.462803149606299
 20
1.993858267716536
 30
0.0
 10
-3.462803149606299
 20
1.993858267716536
 30
0.0
 10
-3.52438188976378
 20
1.878153543307087
 30
0.0
 10
-3.52438188976378
 20
1.878153543307087
 30
0.0
 10
-3.52438188976378
 20
1.878153543307087
 30
0.0
 10
-3.52438188976378
 20
1.878153543307087
 30
0.0
 10
-3.595106299212599
 20
1.767842519685039
 30
0.0
 10
-3.595106299212599
 20
1.767842519685039
 30
0.0
 10
-3.595106299212599
 20
1.767842519685039
 30
0.0
 10
-3.595106299212599
 20
1.767842519685039
 30
0.0
 10
-3.665846456692913
 20
1.878153543307087
 30
0.0
 10
-3.665846456692913
 20
1.878153543307087
 30
0.0
 10
-3.665846456692913
 20
1.878153543307087
 30
0.0
 10
-3.665846456692913
 20
1.878153543307087
 30
0.0
 10
-3.727413385826772
 20
1.993834645669291
 30
0.0
 10
-3.727413385826772
 20
1.993834645669291
 30
0.0
 10
-3.727413385826772
 20
1.993834645669291
 30
0.0
 10
-3.727413385826772
 20
1.993834645669291
 30
0.0
 10
-3.779405511811023
 20
2.114102362204724
 30
0.0
 10
-3.779405511811023
 20
2.114102362204724
 30
0.0
 10
-3.779405511811023
 20
2.114102362204724
 30
0.0
 10
-3.779405511811023
 20
2.114102362204724
 30
0.0
 10
-3.8215
 20
2.238208661417323
 30
0.0
 10
-3.8215
 20
2.238208661417323
 30
0.0
 10
-3.8215
 20
2.238208661417323
 30
0.0
 10
-3.8215
 20
2.238208661417323
 30
0.0
 10
-3.853397637795275
 20
2.365291338582677
 30
0.0
 10
-3.853397637795275
 20
2.365291338582677
 30
0.0
 10
-3.853397637795275
 20
2.365291338582677
 30
0.0
 10
-3.853397637795275
 20
2.365291338582677
 30
0.0
 10
-3.874917322834646
 20
2.494570866141732
 30
0.0
 10
-3.874917322834646
 20
2.494570866141732
 30
0.0
 10
-3.874917322834646
 20
2.494570866141732
 30
0.0
 10
-3.874917322834646
 20
2.494570866141732
 30
0.0
 10
-3.885889763779528
 20
2.625169291338583
 30
0.0
 10
-3.885889763779528
 20
2.625169291338583
 30
0.0
 10
-3.885889763779528
 20
2.625169291338583
 30
0.0
 10
-3.885889763779528
 20
2.625169291338583
 30
0.0
 10
-3.886248031496063
 20
2.756255905511811
 30
0.0
 10
-3.886248031496063
 20
2.756255905511811
 30
0.0
 10
-3.886248031496063
 20
2.756255905511811
 30
0.0
 10
-3.886248031496063
 20
2.756255905511811
 30
0.0
 10
-3.876003937007874
 20
2.886846456692914
 30
0.0
 10
-3.876003937007874
 20
2.886846456692914
 30
0.0
 10
-3.876003937007874
 20
2.886846456692914
 30
0.0
 10
-3.876003937007874
 20
2.886846456692914
 30
0.0
 10
-3.855220472440945
 20
3.016228346456693
 30
0.0
 10
-3.855220472440945
 20
3.016228346456693
 30
0.0
 10
-3.855220472440945
 20
3.016228346456693
 30
0.0
 10
-3.855220472440945
 20
3.016228346456693
 30
0.0
 10
-3.824015748031496
 20
3.143507874015748
 30
0.0
 10
-3.824015748031496
 20
3.143507874015748
 30
0.0
 10
-3.824015748031496
 20
3.143507874015748
 30
0.0
 10
-3.824015748031496
 20
3.143507874015748
 30
0.0
 10
-3.782610236220473
 20
3.267842519685039
 30
0.0
 10
-3.782610236220473
 20
3.267842519685039
 30
0.0
 10
-3.782610236220473
 20
3.267842519685039
 30
0.0
 10
-3.782610236220473
 20
3.267842519685039
 30
0.0
 10
-3.651437007874016
 20
3.267842519685039
 30
0.0
 10
-3.651437007874016
 20
3.267842519685039
 30
0.0
 10
-3.651437007874016
 20
3.267842519685039
 30
0.0
 10
-3.651437007874016
 20
3.267842519685039
 30
0.0
 10
-3.651437007874016
 20
3.109066929133858
 30
0.0
 10
-3.651437007874016
 20
3.109066929133858
 30
0.0
 10
-3.651437007874016
 20
3.109066929133858
 30
0.0
 10
-3.651437007874016
 20
3.109066929133858
 30
0.0
 10
-3.538866141732283
 20
3.109145669291339
 30
0.0
 10
-3.538866141732283
 20
3.109145669291339
 30
0.0
 10
-3.538866141732283
 20
3.109145669291339
 30
0.0
 10
-3.538866141732283
 20
3.109145669291339
 30
0.0
 10
-3.538866141732283
 20
3.26792125984252
 30
0.0
 10
-3.538866141732283
 20
3.26792125984252
 30
0.0
 10
-3.538866141732283
 20
3.26792125984252
 30
0.0
 10
-3.538866141732283
 20
3.26792125984252
 30
0.0
 10
-3.407610236220473
 20
3.267842519685039
 30
0.0
 10
-3.407610236220473
 20
3.267842519685039
 30
0.0
 10
-3.407610236220473
 20
3.267842519685039
 30
0.0
 10
-3.407610236220473
 20
3.267842519685039
 30
0.0
 10
-3.366220472440945
 20
3.143507874015748
 30
0.0
 10
-3.366220472440945
 20
3.143507874015748
 30
0.0
 10
-3.366220472440945
 20
3.143507874015748
 30
0.0
 10
-3.366220472440945
 20
3.143507874015748
 30
0.0
 10
-3.335011811023622
 20
3.016228346456693
 30
0.0
 10
-3.335011811023622
 20
3.016228346456693
 30
0.0
 10
-3.335011811023622
 20
3.016228346456693
 30
0.0
 10
-3.335011811023622
 20
3.016228346456693
 30
0.0
 10
-3.314216535433071
 20
2.886807086614173
 30
0.0
 10
-3.314216535433071
 20
2.886807086614173
 30
0.0
 10
-3.314216535433071
 20
2.886807086614173
 30
0.0
 10
-3.314216535433071
 20
2.886807086614173
 30
0.0
 10
-3.303972440944882
 20
2.756208661417323
 30
0.0
 10
-3.303972440944882
 20
2.756208661417323
 30
0.0
 10
-3.303972440944882
 20
2.756208661417323
 30
0.0
 10
-3.303972440944882
 20
2.756208661417323
 30
0.0
 10
-3.304334645669291
 20
2.625267716535433
 30
0.0
 10
-3.304334645669291
 20
2.625267716535433
 30
0.0
  0
ELLIPSE
  5
43
330
1F
100
AcDbEntity
  8
Layer 1
 62
     3
370
     9
100
AcDbEllipse
 10
-3.098322834645669
 20
5.076897637795276
 30
0.0
 11
0.0
 21
0.02916535433070866
 31
0.0
210
0.0
220
0.0
230
1.0
 40
0.9285907127429806
 41
0.0
 42
6.283185307179586
  0
SPLINE
  5
44
330
1F
100
AcDbEntity
  8
Layer 1
 62
     5
370
     9
100
AcDbSpline
210
0.0
220
0.0
230
1.0
 70
    11
 71
     3
 72
   300
 73
   296
 74
     0
 42
0.0000000001
 43
0.0000000001
 40
0.0
 40
0.0
 40
0.0
 40
0.0
 40
0.0133333333333333
 40
0.0133333333333333
 40
0.0133333333333333
 40
0.0133333333333333
 40
0.0266666666666667
 40
0.0266666666666667
 40
0.0266666666666667
 40
0.0266666666666667
 40
0.04
 40
0.04
 40
0.04
 40
0.04
 40
0.0533333333333333
 40
0.0533333333333333
 40
0.0533333333333333
 40
0.0533333333333333
 40
0.0666666666666667
 40
0.0666666666666667
 40
0.0666666666666667
 40
0.0666666666666667
 40
0.08
 40
0.08
 40
0.08
 40
0.08
 40
0.0933333333333333
 40
0.0933333333333333
 40
0.0933333333333333
 40
0.0933333333333333
 40
0.1066666666666667
 40
0.1066666666666667
 40
0.1066666666666667
 40
0.1066666666666667
 40
0.12
 40
0.12
 40
0.12
 40
0.12
 40
0.1333333333333333
 40
0.1333333333333333
 40
0.1333333333333333
 40
0.1333333333333333
 40
0.1466666666666667
 40
0.1466666666666667
 40
0.1466666666666667
 40
0.1466666666666667
 40
0.16
 40
0.16
 40
0.16
 40
0.16
 40
0.1733333333333333
 40
0.1733333333333333
 40
0.1733333333333333
 40
0.1733333333333333
 40
0.1866666666666667
 40
0.1866666666666667
 40
0.1866666666666667
 40
0.1866666666666667
 40
0.2
 40
0.2
 40
0.2
 40
0.2
 40
0.2133333333333333
 40
0.2133333333333333
 40
0.2133333333333333
 40
0.2133333333333333
 40
0.2266666666666667
 40
0.2266666666666667
 40
0.2266666666666667
 40
0.2266666666666667
 40
0.24
 40
0.24
 40
0.24
 40
0.24
 40
0.2533333333333334
 40
0.2533333333333334
 40
0.2533333333333334
 40
0.2533333333333334
 40
0.2666666666666667
 40
0.2666666666666667
 40
0.2666666666666667
 40
0.2666666666666667
 40
0.28
 40
0.28
 40
0.28
 40
0.28
 40
0.2933333333333333
 40
0.2933333333333333
 40
0.2933333333333333
 40
0.2933333333333333
 40
0.3066666666666666
 40
0.3066666666666666
 40
0.3066666666666666
 40
0.3066666666666666
 40
0.32
 40
0.32
 40
0.32
 40
0.32
 40
0.3333333333333333
 40
0.3333333333333333
 40
0.3333333333333333
 40
0.3333333333333333
 40
0.3466666666666667
 40
0.3466666666666667
 40
0.3466666666666667
 40
0.3466666666666667
 40
0.36
 40
0.36
 40
0.36
 40
0.36
 40
0.3733333333333334
 40
0.3733333333333334
 40
0.3733333333333334
 40
0.3733333333333334
 40
0.3866666666666667
 40
0.3866666666666667
 40
0.3866666666666667
 40
0.3866666666666667
 40
0.4
 40
0.4
 40
0.4
 40
0.4
 40
0.4133333333333333
 40
0.4133333333333333
 40
0.4133333333333333
 40
0.4133333333333333
 40
0.4266666666666667
 40
0.4266666666666667
 40
0.4266666666666667
 40
0.4266666666666667
 40
0.44
 40
0.44
 40
0.44
 40
0.44
 40
0.4533333333333333
 40
0.4533333333333333
 40
0.4533333333333333
 40
0.4533333333333333
 40
0.4666666666666667
 40
0.4666666666666667
 40
0.4666666666666667
 40
0.4666666666666667
 40
0.48
 40
0.48
 40
0.48
 40
0.48
 40
0.4933333333333333
 40
0.4933333333333333
 40
0.4933333333333333
 40
0.4933333333333333
 40
0.5066666666666667
 40
0.5066666666666667
 40
0.5066666666666667
 40
0.5066666666666667
 40
0.52
 40
0.52
 40
0.52
 40
0.52
 40
0.5333333333333333
 40
0.5333333333333333
 40
0.5333333333333333
 40
0.5333333333333333
 40
0.5466666666666666
 40
0.5466666666666666
 40
0.5466666666666666
 40
0.5466666666666666
 40
0.56
 40
0.56
 40
0.56
 40
0.56
 40
0.5733333333333334
 40
0.5733333333333334
 40
0.5733333333333334
 40
0.5733333333333334
 40
0.5866666666666667
 40
0.5866666666666667
 40
0.5866666666666667
 40
0.5866666666666667
 40
0.6
 40
0.6
 40
0.6
 40
0.6
 40
0.6133333333333333
 40
0.6133333333333333
 40
0.6133333333333333
 40
0.6133333333333333
 40
0.6266666666666667
 40
0.6266666666666667
 40
0.6266666666666667
 40
0.6266666666666667
 40
0.64
 40
0.64
 40
0.64
 40
0.64
 40
0.6533333333333333
 40
0.6533333333333333
 40
0.6533333333333333
 40
0.6533333333333333
 40
0.6666666666666666
 40
0.6666666666666666
 40
0.6666666666666666
 40
0.6666666666666666
 40
0.68
 40
0.68
 40
0.68
 40
0.68
 40
0.6933333333333334
 40
0.6933333333333334
 40
0.6933333333333334
 40
0.6933333333333334
 40
0.7066666666666667
 40
0.7066666666666667
 40
0.7066666666666667
 40
0.7066666666666667
 40
0.72
 40
0.72
 40
0.72
 40
0.72
 40
0.7333333333333333
 40
0.7333333333333333
 40
0.7333333333333333
 40
0.7333333333333333
 40
0.7466666666666667
 40
0.7466666666666667
 40
0.7466666666666667
 40
0.7466666666666667
 40
0.76
 40
0.76
 40
0.76
 40
0.76
 40
0.7733333333333333
 40
0.7733333333333333
 40
0.7733333333333333
 40
0.7733333333333333
 40
0.7866666666666666
 40
0.7866666666666666
 40
0.7866666666666666
 40
0.7866666666666666
 40
0.8
 40
0.8
 40
0.8
 40
0.8
 40
0.8133333333333334
 40
0.8133333333333334
 40
0.8133333333333334
 40
0.8133333333333334
 40
0.8266666666666667
 40
0.8266666666666667
 40
0.8266666666666667
 40
0.8266666666666667
 40
0.84
 40
0.84
 40
0.84
 40
0.84
 40
0.8533333333333334
 40
0.8533333333333334
 40
0.8533333333333334
 40
0.8533333333333334
 40
0.8666666666666667
 40
0.8666666666666667
 40
0.8666666666666667
 40
0.8666666666666667
 40
0.88
 40
0.88
 40
0.88
 40
0.88
 40
0.8933333333333333
 40
0.8933333333333333
 40
0.8933333333333333
 40
0.8933333333333333
 40
0.9066666666666666
 40
0.9066666666666666
 40
0.9066666666666666
 40
0.9066666666666666
 40
0.92
 40
0.92
 40
0.92
 40
0.92
 40
0.9333333333333333
 40
0.9333333333333333
 40
0.9333333333333333
 40
0.9333333333333333
 40
0.9466666666666667
 40
0.9466666666666667
 40
0.9466666666666667
 40
0.9466666666666667
 40
0.96
 40
0.96
 40
0.96
 40
0.96
 40
0.9733333333333334
 40
0.9733333333333334
 40
0.9733333333333334
 40
0.9733333333333334
 40
1.0
 40
1.0
 40
1.0
 40
1.0
 10
-2.886874015748031
 20
4.471405511811024
 30
0.0
 10
-2.886874015748031
 20
4.471405511811024
 30
0.0
 10
-2.879129921259842
 20
4.409925196850394
 30
0.0
 10
-2.879129921259842
 20
4.409925196850394
 30
0.0
 10
-2.879129921259842
 20
4.409925196850394
 30
0.0
 10
-2.879129921259842
 20
4.409925196850394
 30
0.0
 10
-2.819925196850394
 20
4.488822834645669
 30
0.0
 10
-2.819925196850394
 20
4.488822834645669
 30
0.0
 10
-2.819925196850394
 20
4.488822834645669
 30
0.0
 10
-2.819925196850394
 20
4.488822834645669
 30
0.0
 10
-2.793625984251968
 20
4.520015748031496
 30
0.0
 10
-2.793625984251968
 20
4.520015748031496
 30
0.0
 10
-2.793625984251968
 20
4.520015748031496
 30
0.0
 10
-2.793625984251968
 20
4.520015748031496
 30
0.0
 10
-2.726503937007874
 20
4.580637795275591
 30
0.0
 10
-2.726503937007874
 20
4.580637795275591
 30
0.0
 10
-2.726503937007874
 20
4.580637795275591
 30
0.0
 10
-2.726503937007874
 20
4.580637795275591
 30
0.0
 10
-2.644374015748031
 20
4.632248031496063
 30
0.0
 10
-2.644374015748031
 20
4.632248031496063
 30
0.0
 10
-2.644374015748031
 20
4.632248031496063
 30
0.0
 10
-2.644374015748031
 20
4.632248031496063
 30
0.0
 10
-2.555299212598425
 20
4.671405511811024
 30
0.0
 10
-2.555299212598425
 20
4.671405511811024
 30
0.0
 10
-2.555299212598425
 20
4.671405511811024
 30
0.0
 10
-2.555299212598425
 20
4.671405511811024
 30
0.0
 10
-2.453003937007874
 20
4.703551181102362
 30
0.0
 10
-2.453003937007874
 20
4.703551181102362
 30
0.0
 10
-2.453003937007874
 20
4.703551181102362
 30
0.0
 10
-2.453003937007874
 20
4.703551181102362
 30
0.0
 10
-2.327551181102362
 20
4.732094488188976
 30
0.0
 10
-2.327551181102362
 20
4.732094488188976
 30
0.0
 10
-2.327551181102362
 20
4.732094488188976
 30
0.0
 10
-2.327551181102362
 20
4.732094488188976
 30
0.0
 10
-2.200696850393701
 20
4.748188976377953
 30
0.0
 10
-2.200696850393701
 20
4.748188976377953
 30
0.0
 10
-2.200696850393701
 20
4.748188976377953
 30
0.0
 10
-2.200696850393701
 20
4.748188976377953
 30
0.0
 10
-2.072846456692913
 20
4.749330708661417
 30
0.0
 10
-2.072846456692913
 20
4.749330708661417
 30
0.0
 10
-2.072846456692913
 20
4.749330708661417
 30
0.0
 10
-2.072846456692913
 20
4.749330708661417
 30
0.0
 10
-1.927685039370079
 20
4.723661417322835
 30
0.0
 10
-1.927685039370079
 20
4.723661417322835
 30
0.0
 10
-1.927685039370079
 20
4.723661417322835
 30
0.0
 10
-1.927685039370079
 20
4.723661417322835
 30
0.0
 10
-1.927685039370079
 20
4.077145669291339
 30
0.0
 10
-1.927685039370079
 20
4.077145669291339
 30
0.0
 10
-1.927685039370079
 20
4.077145669291339
 30
0.0
 10
-1.927685039370079
 20
4.077145669291339
 30
0.0
 10
-1.814417322834646
 20
4.077145669291339
 30
0.0
 10
-1.814417322834646
 20
4.077145669291339
 30
0.0
 10
-1.814417322834646
 20
4.077145669291339
 30
0.0
 10
-1.814417322834646
 20
4.077145669291339
 30
0.0
 10
-1.814417322834646
 20
4.686145669291339
 30
0.0
 10
-1.814417322834646
 20
4.686145669291339
 30
0.0
 10
-1.814417322834646
 20
4.686145669291339
 30
0.0
 10
-1.814417322834646
 20
4.686145669291339
 30
0.0
 10
-1.670295275590551
 20
4.607066929133858
 30
0.0
 10
-1.670295275590551
 20
4.607066929133858
 30
0.0
 10
-1.670295275590551
 20
4.607066929133858
 30
0.0
 10
-1.670295275590551
 20
4.607066929133858
 30
0.0
 10
-1.540736220472441
 20
4.497724409448819
 30
0.0
 10
-1.540736220472441
 20
4.497724409448819
 30
0.0
 10
-1.540736220472441
 20
4.497724409448819
 30
0.0
 10
-1.540736220472441
 20
4.497724409448819
 30
0.0
 10
-1.440271653543307
 20
4.371055118110236
 30
0.0
 10
-1.440271653543307
 20
4.371055118110236
 30
0.0
 10
-1.440271653543307
 20
4.371055118110236
 30
0.0
 10
-1.440271653543307
 20
4.371055118110236
 30
0.0
 10
-1.338362204724409
 20
4.149208661417322
 30
0.0
 10
-1.338362204724409
 20
4.149208661417322
 30
0.0
 10
-1.338362204724409
 20
4.149208661417322
 30
0.0
 10
-1.338362204724409
 20
4.149208661417322
 30
0.0
 10
-1.304696850393701
 20
3.831917322834645
 30
0.0
 10
-1.304696850393701
 20
3.831917322834645
 30
0.0
 10
-1.304696850393701
 20
3.831917322834645
 30
0.0
 10
-1.304696850393701
 20
3.831917322834645
 30
0.0
 10
-1.336748031496063
 20
3.637173228346457
 30
0.0
 10
-1.336748031496063
 20
3.637173228346457
 30
0.0
 10
-1.336748031496063
 20
3.637173228346457
 30
0.0
 10
-1.336748031496063
 20
3.637173228346457
 30
0.0
 10
-1.367043307086614
 20
3.561811023622047
 30
0.0
 10
-1.367043307086614
 20
3.561811023622047
 30
0.0
 10
-1.367043307086614
 20
3.561811023622047
 30
0.0
 10
-1.367043307086614
 20
3.561811023622047
 30
0.0
 10
-1.415803149606299
 20
3.479897637795276
 30
0.0
 10
-1.415803149606299
 20
3.479897637795276
 30
0.0
 10
-1.415803149606299
 20
3.479897637795276
 30
0.0
 10
-1.415803149606299
 20
3.479897637795276
 30
0.0
 10
-1.481185039370079
 20
3.419015748031496
 30
0.0
 10
-1.481185039370079
 20
3.419015748031496
 30
0.0
 10
-1.481185039370079
 20
3.419015748031496
 30
0.0
 10
-1.481185039370079
 20
3.419015748031496
 30
0.0
 10
-2.771318897637795
 20
3.419015748031496
 30
0.0
 10
-2.771318897637795
 20
3.419015748031496
 30
0.0
 10
-2.771318897637795
 20
3.419015748031496
 30
0.0
 10
-2.771318897637795
 20
3.419015748031496
 30
0.0
 10
-2.909055118110236
 20
3.435389763779527
 30
0.0
 10
-2.909055118110236
 20
3.435389763779527
 30
0.0
 10
-2.909055118110236
 20
3.435389763779527
 30
0.0
 10
-2.909055118110236
 20
3.435389763779527
 30
0.0
 10
-2.998657480314961
 20
3.486102362204724
 30
0.0
 10
-2.998657480314961
 20
3.486102362204724
 30
0.0
 10
-2.998657480314961
 20
3.486102362204724
 30
0.0
 10
-2.998657480314961
 20
3.486102362204724
 30
0.0
 10
-3.075885826771653
 20
3.552429133858268
 30
0.0
 10
-3.075885826771653
 20
3.552429133858268
 30
0.0
 10
-3.075885826771653
 20
3.552429133858268
 30
0.0
 10
-3.075885826771653
 20
3.552429133858268
 30
0.0
 10
-3.142874015748032
 20
3.632082677165354
 30
0.0
 10
-3.142874015748032
 20
3.632082677165354
 30
0.0
 10
-3.142874015748032
 20
3.632082677165354
 30
0.0
 10
-3.142874015748032
 20
3.632082677165354
 30
0.0
 10
-3.182614173228346
 20
3.69596062992126
 30
0.0
 10
-3.182614173228346
 20
3.69596062992126
 30
0.0
 10
-3.182614173228346
 20
3.69596062992126
 30
0.0
 10
-3.182614173228346
 20
3.69596062992126
 30
0.0
 10
-3.208744094488189
 20
3.759429133858268
 30
0.0
 10
-3.208744094488189
 20
3.759429133858268
 30
0.0
 10
-3.208744094488189
 20
3.759429133858268
 30
0.0
 10
-3.208744094488189
 20
3.759429133858268
 30
0.0
 10
-3.226464566929134
 20
3.825755905511811
 30
0.0
 10
-3.226464566929134
 20
3.825755905511811
 30
0.0
 10
-3.226464566929134
 20
3.825755905511811
 30
0.0
 10
-3.226464566929134
 20
3.825755905511811
 30
0.0
 10
-3.241448818897638
 20
3.919165354330709
 30
0.0
 10
-3.241448818897638
 20
3.919165354330709
 30
0.0
 10
-3.241448818897638
 20
3.919165354330709
 30
0.0
 10
-3.241448818897638
 20
3.919165354330709
 30
0.0
 10
-3.250216535433071
 20
4.074433070866141
 30
0.0
 10
-3.250216535433071
 20
4.074433070866141
 30
0.0
 10
-3.250216535433071
 20
4.074433070866141
 30
0.0
 10
-3.250216535433071
 20
4.074433070866141
 30
0.0
 10
-3.238370078740158
 20
4.227948818897638
 30
0.0
 10
-3.238370078740158
 20
4.227948818897638
 30
0.0
 10
-3.238370078740158
 20
4.227948818897638
 30
0.0
 10
-3.238370078740158
 20
4.227948818897638
 30
0.0
 10
-3.204775590551181
 20
4.379523622047244
 30
0.0
 10
-3.204775590551181
 20
4.379523622047244
 30
0.0
 10
-3.204775590551181
 20
4.379523622047244
 30
0.0
 10
-3.204775590551181
 20
4.379523622047244
 30
0.0
 10
-3.182716535433071
 20
4.445125984251969
 30
0.0
 10
-3.182716535433071
 20
4.445125984251969
 30
0.0
 10
-3.182716535433071
 20
4.445125984251969
 30
0.0
 10
-3.182716535433071
 20
4.445125984251969
 30
0.0
 10
-3.138877952755906
 20
4.549031496062992
 30
0.0
 10
-3.138877952755906
 20
4.549031496062992
 30
0.0
 10
-3.138877952755906
 20
4.549031496062992
 30
0.0
 10
-3.138877952755906
 20
4.549031496062992
 30
0.0
 10
-3.138657480314961
 20
4.561716535433071
 30
0.0
 10
-3.138657480314961
 20
4.561716535433071
 30
0.0
 10
-3.138657480314961
 20
4.561716535433071
 30
0.0
 10
-3.138657480314961
 20
4.561716535433071
 30
0.0
 10
-3.14309842519685
 20
4.574043307086614
 30
0.0
 10
-3.14309842519685
 20
4.574043307086614
 30
0.0
 10
-3.14309842519685
 20
4.574043307086614
 30
0.0
 10
-3.14309842519685
 20
4.574043307086614
 30
0.0
 10
-3.168944881889764
 20
4.577716535433071
 30
0.0
 10
-3.168944881889764
 20
4.577716535433071
 30
0.0
 10
-3.168944881889764
 20
4.577716535433071
 30
0.0
 10
-3.168944881889764
 20
4.577716535433071
 30
0.0
 10
-3.196830708661417
 20
4.589787401574803
 30
0.0
 10
-3.196830708661417
 20
4.589787401574803
 30
0.0
 10
-3.196830708661417
 20
4.589787401574803
 30
0.0
 10
-3.196830708661417
 20
4.589787401574803
 30
0.0
 10
-3.211566929133858
 20
4.614984251968504
 30
0.0
 10
-3.211566929133858
 20
4.614984251968504
 30
0.0
 10
-3.211566929133858
 20
4.614984251968504
 30
0.0
 10
-3.211566929133858
 20
4.614984251968504
 30
0.0
 10
-3.214259842519685
 20
4.646562992125984
 30
0.0
 10
-3.214259842519685
 20
4.646562992125984
 30
0.0
 10
-3.214259842519685
 20
4.646562992125984
 30
0.0
 10
-3.214259842519685
 20
4.646562992125984
 30
0.0
 10
-3.205937007874016
 20
4.692523622047244
 30
0.0
 10
-3.205937007874016
 20
4.692523622047244
 30
0.0
 10
-3.205937007874016
 20
4.692523622047244
 30
0.0
 10
-3.205937007874016
 20
4.692523622047244
 30
0.0
 10
-3.191244094488189
 20
4.736377952755905
 30
0.0
 10
-3.191244094488189
 20
4.736377952755905
 30
0.0
 10
-3.191244094488189
 20
4.736377952755905
 30
0.0
 10
-3.191244094488189
 20
4.736377952755905
 30
0.0
 10
-3.155204724409449
 20
4.819633858267717
 30
0.0
 10
-3.155204724409449
 20
4.819633858267717
 30
0.0
 10
-3.155204724409449
 20
4.819633858267717
 30
0.0
 10
-3.155204724409449
 20
4.819633858267717
 30
0.0
 10
-3.148251968503937
 20
4.858759842519685
 30
0.0
 10
-3.148251968503937
 20
4.858759842519685
 30
0.0
 10
-3.148251968503937
 20
4.858759842519685
 30
0.0
 10
-3.148251968503937
 20
4.858759842519685
 30
0.0
 10
-3.149724409448819
 20
4.898311023622047
 30
0.0
 10
-3.149724409448819
 20
4.898311023622047
 30
0.0
 10
-3.149724409448819
 20
4.898311023622047
 30
0.0
 10
-3.149724409448819
 20
4.898311023622047
 30
0.0
 10
-3.156043307086614
 20
4.937893700787401
 30
0.0
 10
-3.156043307086614
 20
4.937893700787401
 30
0.0
 10
-3.156043307086614
 20
4.937893700787401
 30
0.0
 10
-3.156043307086614
 20
4.937893700787401
 30
0.0
 10
-3.162157480314961
 20
4.954555118110236
 30
0.0
 10
-3.162157480314961
 20
4.954555118110236
 30
0.0
 10
-3.162157480314961
 20
4.954555118110236
 30
0.0
 10
-3.162157480314961
 20
4.954555118110236
 30
0.0
 10
-3.172586614173228
 20
4.961614173228346
 30
0.0
 10
-3.172586614173228
 20
4.961614173228346
 30
0.0
 10
-3.172586614173228
 20
4.961614173228346
 30
0.0
 10
-3.172586614173228
 20
4.961614173228346
 30
0.0
 10
-3.185728346456693
 20
4.96384251968504
 30
0.0
 10
-3.185728346456693
 20
4.96384251968504
 30
0.0
 10
-3.185728346456693
 20
4.96384251968504
 30
0.0
 10
-3.185728346456693
 20
4.96384251968504
 30
0.0
 10
-3.256657480314961
 20
4.946889763779527
 30
0.0
 10
-3.256657480314961
 20
4.946889763779527
 30
0.0
 10
-3.256657480314961
 20
4.946889763779527
 30
0.0
 10
-3.256657480314961
 20
4.946889763779527
 30
0.0
 10
-3.27703937007874
 20
4.939854330708662
 30
0.0
 10
-3.27703937007874
 20
4.939854330708662
 30
0.0
 10
-3.27703937007874
 20
4.939854330708662
 30
0.0
 10
-3.27703937007874
 20
4.939854330708662
 30
0.0
 10
-3.286787401574803
 20
4.939854330708662
 30
0.0
 10
-3.286787401574803
 20
4.939854330708662
 30
0.0
 10
-3.286787401574803
 20
4.939854330708662
 30
0.0
 10
-3.286787401574803
 20
4.939854330708662
 30
0.0
 10
-3.239562992125984
 20
5.055952755905512
 30
0.0
 10
-3.239562992125984
 20
5.055952755905512
 30
0.0
 10
-3.239562992125984
 20
5.055952755905512
 30
0.0
 10
-3.239562992125984
 20
5.055952755905512
 30
0.0
 10
-3.133996062992126
 20
5.171377952755906
 30
0.0
 10
-3.133996062992126
 20
5.171377952755906
 30
0.0
 10
-3.133996062992126
 20
5.171377952755906
 30
0.0
 10
-3.133996062992126
 20
5.171377952755906
 30
0.0
 10
-3.085433070866142
 20
5.213275590551181
 30
0.0
 10
-3.085433070866142
 20
5.213275590551181
 30
0.0
 10
-3.085433070866142
 20
5.213275590551181
 30
0.0
 10
-3.085433070866142
 20
5.213275590551181
 30
0.0
 10
-3.004279527559055
 20
5.253311023622047
 30
0.0
 10
-3.004279527559055
 20
5.253311023622047
 30
0.0
 10
-3.004279527559055
 20
5.253311023622047
 30
0.0
 10
-3.004279527559055
 20
5.253311023622047
 30
0.0
 10
-2.919566929133858
 20
5.258531496062992
 30
0.0
 10
-2.919566929133858
 20
5.258531496062992
 30
0.0
 10
-2.919566929133858
 20
5.258531496062992
 30
0.0
 10
-2.919566929133858
 20
5.258531496062992
 30
0.0
 10
-2.845665354330709
 20
5.235590551181103
 30
0.0
 10
-2.845665354330709
 20
5.235590551181103
 30
0.0
 10
-2.845665354330709
 20
5.235590551181103
 30
0.0
 10
-2.845665354330709
 20
5.235590551181103
 30
0.0
 10
-2.794496062992126
 20
5.197161417322834
 30
0.0
 10
-2.794496062992126
 20
5.197161417322834
 30
0.0
 10
-2.794496062992126
 20
5.197161417322834
 30
0.0
 10
-2.794496062992126
 20
5.197161417322834
 30
0.0
 10
-2.765822834645669
 20
5.1573031496063
 30
0.0
 10
-2.765822834645669
 20
5.1573031496063
 30
0.0
 10
-2.765822834645669
 20
5.1573031496063
 30
0.0
 10
-2.765822834645669
 20
5.1573031496063
 30
0.0
 10
-2.748299212598425
 20
5.112795275590551
 30
0.0
 10
-2.748299212598425
 20
5.112795275590551
 30
0.0
 10
-2.748299212598425
 20
5.112795275590551
 30
0.0
 10
-2.748299212598425
 20
5.112795275590551
 30
0.0
 10
-2.739948818897638
 20
5.06434251968504
 30
0.0
 10
-2.739948818897638
 20
5.06434251968504
 30
0.0
 10
-2.739948818897638
 20
5.06434251968504
 30
0.0
 10
-2.739948818897638
 20
5.06434251968504
 30
0.0
 10
-2.739740157480315
 20
5.015322834645669
 30
0.0
 10
-2.739740157480315
 20
5.015322834645669
 30
0.0
 10
-2.739740157480315
 20
5.015322834645669
 30
0.0
 10
-2.739740157480315
 20
5.015322834645669
 30
0.0
 10
-2.748114173228347
 20
4.968889763779528
 30
0.0
 10
-2.748114173228347
 20
4.968889763779528
 30
0.0
 10
-2.748114173228347
 20
4.968889763779528
 30
0.0
 10
-2.748114173228347
 20
4.968889763779528
 30
0.0
 10
-2.763736220472441
 20
4.924291338582677
 30
0.0
 10
-2.763736220472441
 20
4.924291338582677
 30
0.0
 10
-2.763736220472441
 20
4.924291338582677
 30
0.0
 10
-2.763736220472441
 20
4.924291338582677
 30
0.0
 10
-2.822066929133858
 20
4.804767716535433
 30
0.0
 10
-2.822066929133858
 20
4.804767716535433
 30
0.0
 10
-2.822066929133858
 20
4.804767716535433
 30
0.0
 10
-2.822066929133858
 20
4.804767716535433
 30
0.0
 10
-2.850417322834646
 20
4.730047244094489
 30
0.0
 10
-2.850417322834646
 20
4.730047244094489
 30
0.0
 10
-2.850417322834646
 20
4.730047244094489
 30
0.0
 10
-2.850417322834646
 20
4.730047244094489
 30
0.0
 10
-2.871826771653543
 20
4.652799212598425
 30
0.0
 10
-2.871826771653543
 20
4.652799212598425
 30
0.0
 10
-2.871826771653543
 20
4.652799212598425
 30
0.0
 10
-2.871826771653543
 20
4.652799212598425
 30
0.0
 10
-2.883767716535433
 20
4.586114173228347
 30
0.0
 10
-2.883767716535433
 20
4.586114173228347
 30
0.0
 10
-2.883767716535433
 20
4.586114173228347
 30
0.0
 10
-2.883767716535433
 20
4.586114173228347
 30
0.0
 10
-2.888066929133858
 20
4.528799212598425
 30
0.0
 10
-2.888066929133858
 20
4.528799212598425
 30
0.0
 10
-2.888066929133858
 20
4.528799212598425
 30
0.0
 10
-2.888066929133858
 20
4.528799212598425
 30
0.0
 10
-2.886874015748031
 20
4.471405511811024
 30
0.0
 10
-2.886874015748031
 20
4.471405511811024
 30
0.0
  0
SPLINE
  5
45
330
1F
100
AcDbEntity
  8
Layer 1
 62
     1
370
     9
100
AcDbSpline
210
0.0
220
0.0
230
1.0
 70
     8
 71
     3
 72
    28
 73
    24
 74
     0
 42
0.0000000001
 43
0.0000000001
 40
0.0
 40
0.0
 40
0.0
 40
0.0
 40
0.1428571428571428
 40
0.1428571428571428
 40
0.1428571428571428
 40
0.1428571428571428
 40
0.2857142857142857
 40
0.2857142857142857
 40
0.2857142857142857
 40
0.2857142857142857
 40
0.4285714285714285
 40
0.4285714285714285
 40
0.4285714285714285
 40
0.4285714285714285
 40
0.5714285714285714
 40
0.5714285714285714
 40
0.5714285714285714
 40
0.5714285714285714
 40
0.7142857142857143
 40
0.7142857142857143
 40
0.7142857142857143
 40
0.7142857142857143
 40
1.0
 40
1.0
 40
1.0
 40
1.0
 10
-3.345830708661417
 20
0.1899133858267716
 30
0.0
 10
-3.50690157480315
 20
0.1420354330708661
 30
0.0
 10
-3.489043307086614
 20
0.2417637795275591
 30
0.0
 10
-3.467169291338583
 20
0.3437244094488189
 30
0.0
 10
-3.467169291338583
 20
0.3437244094488189
 30
0.0
 10
-3.623649606299213
 20
0.3333346456692913
 30
0.0
 10
-3.61455905511811
 20
0.411507874015748
 30
0.0
 10
-3.543051181102362
 20
0.5218267716535433
 30
0.0
 10
-3.543051181102362
 20
0.5218267716535433
 30
0.0
 10
-3.671909448818897
 20
0.5785314960629921
 30
0.0
 10
-3.634082677165354
 20
0.677511811023622
 30
0.0
 10
-3.57003937007874
 20
0.7210314960629921
 30
0.0
 10
-3.57003937007874
 20
0.7210314960629921
 30
0.0
 10
-3.669625984251968
 20
0.7987322834645669
 30
0.0
 10
-3.661622047244094
 20
0.8613031496062992
 30
0.0
 10
-3.543649606299212
 20
0.9180551181102362
 30
0.0
 10
-3.543649606299212
 20
0.9180551181102362
 30
0.0
 10
-3.616775590551181
 20
1.027220472440945
 30
0.0
 10
-3.584944881889764
 20
1.083988188976378
 30
0.0
 10
-3.468185039370079
 20
1.096641732283465
 30
0.0
 10
-3.468185039370079
 20
1.096641732283465
 30
0.0
 10
-3.482850393700788
 20
1.13401968503937
 30
0.0
 10
-3.499704724409449
 20
1.20988188976378
 30
0.0
 10
-3.444897637795276
 20
1.240350393700787
 30
0.0
  0
SPLINE
  5
46
330
1F
100
AcDbEntity
  8
Layer 1
 62
     1
370
     9
100
AcDbSpline
210
0.0
220
0.0
230
1.0
 70
     8
 71
     3
 72
    16
 73
    12
 74
     0
 42
0.0000000001
 43
0.0000000001
 40
0.0
 40
0.0
 40
0.0
 40
0.0
 40
0.25
 40
0.25
 40
0.25
 40
0.25
 40
0.5
 40
0.5
 40
0.5
 40
0.5
 40
1.0
 40
1.0
 40
1.0
 40
1.0
 10
-3.391877952755905
 20
1.253669291338583
 30
0.0
 10
-3.384838582677165
 20
1.253933070866142
 30
0.0
 10
-3.377314960629921
 20
1.253834645669291
 30
0.0
 10
-3.369232283464567
 20
1.253311023622047
 30
0.0
 10
-3.369232283464567
 20
1.253311023622047
 30
0.0
 10
-3.362464566929134
 20
1.252456692913386
 30
0.0
 10
-3.355417322834646
 20
1.251354330708661
 30
0.0
 10
-3.34805905511811
 20
1.249984251968504
 30
0.0
 10
-3.34805905511811
 20
1.249984251968504
 30
0.0
 10
-3.351251968503937
 20
1.266669291338583
 30
0.0
 10
-3.352633858267716
 20
1.28201968503937
 30
0.0
 10
-3.353507874015748
 20
1.295728346456693
 30
0.0
  0
SPLINE
  5
47
330
1F
100
AcDbEntity
  8
Layer 1
 62
     1
370
     9
100
AcDbSpline
210
0.0
220
0.0
230
1.0
 70
     8
 71
     3
 72
    16
 73
    12
 74
     0
 42
0.0000000001
 43
0.0000000001
 40
0.0
 40
0.0
 40
0.0
 40
0.0
 40
0.25
 40
0.25
 40
0.25
 40
0.25
 40
0.5
 40
0.5
 40
0.5
 40
0.5
 40
1.0
 40
1.0
 40
1.0
 40
1.0
 10
-3.353984251968504
 20
1.309094488188976
 30
0.0
 10
-3.354590551181102
 20
1.394688976377953
 30
0.0
 10
-3.303216535433071
 20
1.412413385826772
 30
0.0
 10
-3.199212598425197
 20
1.362196850393701
 30
0.0
 10
-3.199212598425197
 20
1.362196850393701
 30
0.0
 10
-3.18640157480315
 20
1.47692125984252
 30
0.0
 10
-3.125366141732283
 20
1.491893700787402
 30
0.0
 10
-3.029433070866142
 20
1.43188188976378
 30
0.0
 10
-3.029433070866142
 20
1.43188188976378
 30
0.0
 10
-2.999905511811024
 20
1.497610236220472
 30
0.0
 10
-2.952748031496063
 20
1.526992125984252
 30
0.0
 10
-2.903326771653543
 20
1.506244094488189
 30
0.0
  0
SPLINE
  5
48
330
1F
100
AcDbEntity
  8
Layer 1
 62
     1
370
     9
100
AcDbSpline
210
0.0
220
0.0
230
1.0
 70
     8
 71
     3
 72
    12
 73
     8
 74
     0
 42
0.0000000001
 43
0.0000000001
 40
0.0
 40
0.0
 40
0.0
 40
0.0
 40
0.3333333333333333
 40
0.3333333333333333
 40
0.3333333333333333
 40
0.3333333333333333
 40
1.0
 40
1.0
 40
1.0
 40
1.0
 10
-2.861
 20
1.476614173228346
 30
0.0
 10
-2.855106299212598
 20
1.470594488188976
 30
0.0
 10
-2.849251968503937
 20
1.463803149606299
 30
0.0
 10
-2.843476377952756
 20
1.456188976377953
 30
0.0
 10
-2.843476377952756
 20
1.456188976377953
 30
0.0
 10
-2.835870078740157
 20
1.46357874015748
 30
0.0
 10
-2.828279527559055
 20
1.47042125984252
 30
0.0
 10
-2.820740157480315
 20
1.476614173228346
 30
0.0
  0
SPLINE
  5
49
330
1F
100
AcDbEntity
  8
Layer 1
 62
     1
370
     9
100
AcDbSpline
210
0.0
220
0.0
230
1.0
 70
     8
 71
     3
 72
    16
 73
    12
 74
     0
 42
0.0000000001
 43
0.0000000001
 40
0.0
 40
0.0
 40
0.0
 40
0.0
 40
0.25
 40
0.25
 40
0.25
 40
0.25
 40
0.5
 40
0.5
 40
0.5
 40
0.5
 40
1.0
 40
1.0
 40
1.0
 40
1.0
 10
-2.791110236220472
 20
1.497236220472441
 30
0.0
 10
-2.739413385826772
 20
1.527653543307087
 30
0.0
 10
-2.693240157480315
 20
1.518889763779528
 30
0.0
 10
-2.664366141732283
 20
1.433681102362205
 30
0.0
 10
-2.664366141732283
 20
1.433681102362205
 30
0.0
 10
-2.568555118110236
 20
1.486748031496063
 30
0.0
 10
-2.498700787401575
 20
1.488102362204724
 30
0.0
 10
-2.493893700787401
 20
1.365653543307087
 30
0.0
 10
-2.493893700787401
 20
1.365653543307087
 30
0.0
 10
-2.398704724409449
 20
1.402464566929134
 30
0.0
 10
-2.343972440944882
 20
1.390685039370079
 30
0.0
 10
-2.340153543307087
 20
1.309535433070866
 30
0.0
  0
SPLINE
  5
4A
330
1F
100
AcDbEntity
  8
Layer 1
 62
     1
370
     9
100
AcDbSpline
210
0.0
220
0.0
230
1.0
 70
     8
 71
     3
 72
    12
 73
     8
 74
     0
 42
0.0000000001
 43
0.0000000001
 40
0.0
 40
0.0
 40
0.0
 40
0.0
 40
0.3333333333333333
 40
0.3333333333333333
 40
0.3333333333333333
 40
0.3333333333333333
 40
1.0
 40
1.0
 40
1.0
 40
1.0
 10
-2.340007874015748
 20
1.295035433070866
 30
0.0
 10
-2.340299212598425
 20
1.282350393700787
 30
0.0
 10
-2.340992125984252
 20
1.267842519685039
 30
0.0
 10
-2.343444881889764
 20
1.252248031496063
 30
0.0
 10
-2.343444881889764
 20
1.252248031496063
 30
0.0
 10
-2.329125984251969
 20
1.254102362204724
 30
0.0
 10
-2.314665354330709
 20
1.253944881889764
 30
0.0
 10
-2.300807086614173
 20
1.251818897637795
 30
0.0
  0
SPLINE
  5
4B
330
1F
100
AcDbEntity
  8
Layer 1
 62
     1
370
     9
100
AcDbSpline
210
0.0
220
0.0
230
1.0
 70
     8
 71
     3
 72
    20
 73
    16
 74
     0
 42
0.0000000001
 43
0.0000000001
 40
0.0
 40
0.0
 40
0.0
 40
0.0
 40
0.2
 40
0.2
 40
0.2
 40
0.2
 40
0.4
 40
0.4
 40
0.4
 40
0.4
 40
0.6
 40
0.6
 40
0.6
 40
0.6
 40
1.0
 40
1.0
 40
1.0
 40
1.0
 10
-2.254803149606299
 20
1.235244094488189
 30
0.0
 10
-2.216212598425197
 20
1.212102362204724
 30
0.0
 10
-2.195208661417323
 20
1.16703937007874
 30
0.0
 10
-2.220779527559055
 20
1.100035433070866
 30
0.0
 10
-2.220779527559055
 20
1.100035433070866
 30
0.0
 10
-2.121153543307086
 20
1.086299212598425
 30
0.0
 10
-2.064346456692913
 20
1.044322834645669
 30
0.0
 10
-2.141952755905512
 20
0.9164291338582677
 30
0.0
 10
-2.141952755905512
 20
0.9164291338582677
 30
0.0
 10
-2.016622047244094
 20
0.8614409448818897
 30
0.0
 10
-2.044885826771654
 20
0.7966968503937008
 30
0.0
 10
-2.116905511811024
 20
0.7210314960629921
 30
0.0
 10
-2.116905511811024
 20
0.7210314960629921
 30
0.0
 10
-2.090685039370079
 20
0.7002047244094488
 30
0.0
 10
-2.074141732283465
 20
0.6794448818897638
 30
0.0
 10
-2.065472440944882
 20
0.6594173228346457
 30
0.0
  0
SPLINE
  5
4C
330
1F
100
AcDbEntity
  8
Layer 1
 62
     1
370
     9
100
AcDbSpline
210
0.0
220
0.0
230
1.0
 70
     8
 71
     3
 72
    16
 73
    12
 74
     0
 42
0.0000000001
 43
0.0000000001
 40
0.0
 40
0.0
 40
0.0
 40
0.0
 40
0.25
 40
0.25
 40
0.25
 40
0.25
 40
0.5
 40
0.5
 40
0.5
 40
0.5
 40
1.0
 40
1.0
 40
1.0
 40
1.0
 10
-2.06296062992126
 20
0.6521535433070866
 30
0.0
 10
-2.043783464566929
 20
0.5973228346456693
 30
0.0
 10
-2.083196850393701
 20
0.5492992125984252
 30
0.0
 10
-2.144145669291339
 20
0.5209291338582677
 30
0.0
 10
-2.144145669291339
 20
0.5209291338582677
 30
0.0
 10
-2.083066929133858
 20
0.4112401574803149
 30
0.0
 10
-2.10946062992126
 20
0.3488307086614173
 30
0.0
 10
-2.224177165354331
 20
0.3363818897637795
 30
0.0
 10
-2.224177165354331
 20
0.3363818897637795
 30
0.0
 10
-2.191870078740157
 20
0.2145551181102362
 30
0.0
 10
-2.220641732283465
 20
0.1516574803149606
 30
0.0
 10
-2.345649606299212
 20
0.1855551181102362
 30
0.0
  0
SPLINE
  5
4D
330
1F
100
AcDbEntity
  8
Layer 1
 62
     1
370
     9
100
AcDbSpline
210
0.0
220
0.0
230
1.0
 70
     8
 71
     3
 72
    76
 73
    72
 74
     0
 42
0.0000000001
 43
0.0000000001
 40
0.0
 40
0.0
 40
0.0
 40
0.0
 40
0.0526315789473684
 40
0.0526315789473684
 40
0.0526315789473684
 40
0.0526315789473684
 40
0.1052631578947368
 40
0.1052631578947368
 40
0.1052631578947368
 40
0.1052631578947368
 40
0.1578947368421053
 40
0.1578947368421053
 40
0.1578947368421053
 40
0.1578947368421053
 40
0.2105263157894737
 40
0.2105263157894737
 40
0.2105263157894737
 40
0.2105263157894737
 40
0.2631578947368421
 40
0.2631578947368421
 40
0.2631578947368421
 40
0.2631578947368421
 40
0.3157894736842105
 40
0.3157894736842105
 40
0.3157894736842105
 40
0.3157894736842105
 40
0.3684210526315789
 40
0.3684210526315789
 40
0.3684210526315789
 40
0.3684210526315789
 40
0.4210526315789473
 40
0.4210526315789473
 40
0.4210526315789473
 40
0.4210526315789473
 40
0.4736842105263158
 40
0.4736842105263158
 40
0.4736842105263158
 40
0.4736842105263158
 40
0.5263157894736842
 40
0.5263157894736842
 40
0.5263157894736842
 40
0.5263157894736842
 40
0.5789473684210527
 40
0.5789473684210527
 40
0.5789473684210527
 40
0.5789473684210527
 40
0.631578947368421
 40
0.631578947368421
 40
0.631578947368421
 40
0.631578947368421
 40
0.6842105263157895
 40
0.6842105263157895
 40
0.6842105263157895
 40
0.6842105263157895
 40
0.7368421052631579
 40
0.7368421052631579
 40
0.7368421052631579
 40
0.7368421052631579
 40
0.7894736842105263
 40
0.7894736842105263
 40
0.7894736842105263
 40
0.7894736842105263
 40
0.8421052631578947
 40
0.8421052631578947
 40
0.8421052631578947
 40
0.8421052631578947
 40
0.8947368421052632
 40
0.8947368421052632
 40
0.8947368421052632
 40
0.8947368421052632
 40
1.0
 40
1.0
 40
1.0
 40
1.0
 10
-3.236421259842519
 20
0.314503937007874
 30
0.0
 10
-3.361948818897638
 20
0.2771929133858267
 30
0.0
 10
-3.348031496062992
 20
0.3549133858267717
 30
0.0
 10
-3.330984251968504
 20
0.4343700787401575
 30
0.0
 10
-3.330984251968504
 20
0.4343700787401575
 30
0.0
 10
-3.452929133858268
 20
0.4262755905511811
 30
0.0
 10
-3.445846456692913
 20
0.4871929133858268
 30
0.0
 10
-3.39011811023622
 20
0.5731653543307087
 30
0.0
 10
-3.39011811023622
 20
0.5731653543307087
 30
0.0
 10
-3.513472440944882
 20
0.5935472440944882
 30
0.0
 10
-3.46886220472441
 20
0.6593503937007874
 30
0.0
 10
-3.411153543307087
 20
0.7284094488188977
 30
0.0
 10
-3.411153543307087
 20
0.7284094488188977
 30
0.0
 10
-3.503366141732283
 20
0.8003464566929134
 30
0.0
 10
-3.465964566929134
 20
0.8456889763779527
 30
0.0
 10
-3.390586614173228
 20
0.8819527559055118
 30
0.0
 10
-3.390586614173228
 20
0.8819527559055118
 30
0.0
 10
-3.447574803149606
 20
0.9670236220472441
 30
0.0
 10
-3.422767716535433
 20
1.011263779527559
 30
0.0
 10
-3.331775590551181
 20
1.021125984251968
 30
0.0
 10
-3.331775590551181
 20
1.021125984251968
 30
0.0
 10
-3.367448818897638
 20
1.117791338582677
 30
0.0
 10
-3.337133858267717
 20
1.159035433070866
 30
0.0
 10
-3.238161417322835
 20
1.140625984251969
 30
0.0
 10
-3.238161417322835
 20
1.140625984251969
 30
0.0
 10
-3.256448818897638
 20
1.236149606299213
 30
0.0
 10
-3.229956692913386
 20
1.28011811023622
 30
0.0
 10
-3.122161417322835
 20
1.228070866141732
 30
0.0
 10
-3.122161417322835
 20
1.228070866141732
 30
0.0
 10
-3.112177165354331
 20
1.317484251968504
 30
0.0
 10
-3.064614173228347
 20
1.329149606299213
 30
0.0
 10
-2.989850393700787
 20
1.28238188976378
 30
0.0
 10
-2.989850393700787
 20
1.28238188976378
 30
0.0
 10
-2.951992125984252
 20
1.366649606299213
 30
0.0
 10
-2.904393700787402
 20
1.379681102362205
 30
0.0
 10
-2.844933070866142
 20
1.301322834645669
 30
0.0
 10
-2.844933070866142
 20
1.301322834645669
 30
0.0
 10
-2.790681102362205
 20
1.354043307086614
 30
0.0
 10
-2.738224409448819
 20
1.380791338582677
 30
0.0
 10
-2.705350393700787
 20
1.283783464566929
 30
0.0
 10
-2.705350393700787
 20
1.283783464566929
 30
0.0
 10
-2.630685039370079
 20
1.325137795275591
 30
0.0
 10
-2.576248031496063
 20
1.326196850393701
 30
0.0
 10
-2.5725
 20
1.230771653543307
 30
0.0
 10
-2.5725
 20
1.230771653543307
 30
0.0
 10
-2.495389763779527
 20
1.260590551181102
 30
0.0
 10
-2.436590551181102
 20
1.260885826771654
 30
0.0
 10
-2.455255905511811
 20
1.142389763779528
 30
0.0
 10
-2.455255905511811
 20
1.142389763779528
 30
0.0
 10
-2.367334645669291
 20
1.153814960629921
 30
0.0
 10
-2.320094488188976
 20
1.127433070866142
 30
0.0
 10
-2.359657480314961
 20
1.023771653543307
 30
0.0
 10
-2.359657480314961
 20
1.023771653543307
 30
0.0
 10
-2.28201968503937
 20
1.013062992125984
 30
0.0
 10
-2.237751968503937
 20
0.9803543307086614
 30
0.0
 10
-2.298228346456693
 20
0.8806850393700787
 30
0.0
 10
-2.298228346456693
 20
0.8806850393700787
 30
0.0
 10
-2.226145669291339
 20
0.8539409448818898
 30
0.0
 10
-2.201649606299213
 20
0.8093307086614173
 30
0.0
 10
-2.278708661417323
 20
0.7284094488188977
 30
0.0
 10
-2.278708661417323
 20
0.7284094488188977
 30
0.0
 10
-2.217129921259843
 20
0.6684370078740157
 30
0.0
 10
-2.21742125984252
 20
0.6154488188976378
 30
0.0
 10
-2.299937007874016
 20
0.5724724409448819
 30
0.0
 10
-2.299937007874016
 20
0.5724724409448819
 30
0.0
 10
-2.252338582677165
 20
0.486988188976378
 30
0.0
 10
-2.272905511811024
 20
0.4383464566929134
 30
0.0
 10
-2.362307086614173
 20
0.4286496062992126
 30
0.0
 10
-2.362307086614173
 20
0.4286496062992126
 30
0.0
 10
-2.337129921259843
 20
0.3337047244094488
 30
0.0
 10
-2.359551181102362
 20
0.2846889763779528
 30
0.0
 10
-2.456972440944882
 20
0.3111062992125984
 30
0.0
  0
SPLINE
  5
4E
330
1F
100
AcDbEntity
  8
Layer 1
 62
     1
370
     9
100
AcDbSpline
210
0.0
220
0.0
230
1.0
 70
     8
 71
     3
 72
    76
 73
    72
 74
     0
 42
0.0000000001
 43
0.0000000001
 40
0.0
 40
0.0
 40
0.0
 40
0.0
 40
0.0526315789473684
 40
0.0526315789473684
 40
0.0526315789473684
 40
0.0526315789473684
 40
0.1052631578947368
 40
0.1052631578947368
 40
0.1052631578947368
 40
0.1052631578947368
 40
0.1578947368421053
 40
0.1578947368421053
 40
0.1578947368421053
 40
0.1578947368421053
 40
0.2105263157894737
 40
0.2105263157894737
 40
0.2105263157894737
 40
0.2105263157894737
 40
0.2631578947368421
 40
0.2631578947368421
 40
0.2631578947368421
 40
0.2631578947368421
 40
0.3157894736842105
 40
0.3157894736842105
 40
0.3157894736842105
 40
0.3157894736842105
 40
0.3684210526315789
 40
0.3684210526315789
 40
0.3684210526315789
 40
0.3684210526315789
 40
0.4210526315789473
 40
0.4210526315789473
 40
0.4210526315789473
 40
0.4210526315789473
 40
0.4736842105263158
 40
0.4736842105263158
 40
0.4736842105263158
 40
0.4736842105263158
 40
0.5263157894736842
 40
0.5263157894736842
 40
0.5263157894736842
 40
0.5263157894736842
 40
0.5789473684210527
 40
0.5789473684210527
 40
0.5789473684210527
 40
0.5789473684210527
 40
0.631578947368421
 40
0.631578947368421
 40
0.631578947368421
 40
0.631578947368421
 40
0.6842105263157895
 40
0.6842105263157895
 40
0.6842105263157895
 40
0.6842105263157895
 40
0.7368421052631579
 40
0.7368421052631579
 40
0.7368421052631579
 40
0.7368421052631579
 40
0.7894736842105263
 40
0.7894736842105263
 40
0.7894736842105263
 40
0.7894736842105263
 40
0.8421052631578947
 40
0.8421052631578947
 40
0.8421052631578947
 40
0.8421052631578947
 40
0.8947368421052632
 40
0.8947368421052632
 40
0.8947368421052632
 40
0.8947368421052632
 40
1.0
 40
1.0
 40
1.0
 40
1.0
 10
-3.16253937007874
 20
0.3986377952755906
 30
0.0
 10
-3.26405905511811
 20
0.3684606299212598
 30
0.0
 10
-3.252799212598425
 20
0.4313188976377953
 30
0.0
 10
-3.23901968503937
 20
0.4955787401574803
 30
0.0
 10
-3.23901968503937
 20
0.4955787401574803
 30
0.0
 10
-3.337641732283465
 20
0.4890354330708662
 30
0.0
 10
-3.331913385826772
 20
0.5383031496062992
 30
0.0
 10
-3.286842519685039
 20
0.6078346456692914
 30
0.0
 10
-3.286842519685039
 20
0.6078346456692914
 30
0.0
 10
-3.386606299212598
 20
0.6243188976377952
 30
0.0
 10
-3.350527559055118
 20
0.6775393700787402
 30
0.0
 10
-3.303854330708662
 20
0.7333897637795276
 30
0.0
 10
-3.303854330708662
 20
0.7333897637795276
 30
0.0
 10
-3.378433070866142
 20
0.7915708661417323
 30
0.0
 10
-3.348185039370079
 20
0.828240157480315
 30
0.0
 10
-3.287220472440945
 20
0.8575708661417323
 30
0.0
 10
-3.287220472440945
 20
0.8575708661417323
 30
0.0
 10
-3.333311023622047
 20
0.9263740157480315
 30
0.0
 10
-3.313248031496063
 20
0.9621535433070866
 30
0.0
 10
-3.23965748031496
 20
0.9701299212598425
 30
0.0
 10
-3.23965748031496
 20
0.9701299212598425
 30
0.0
 10
-3.268507874015748
 20
1.048307086614173
 30
0.0
 10
-3.243992125984252
 20
1.081661417322835
 30
0.0
 10
-3.163944881889764
 20
1.066779527559055
 30
0.0
 10
-3.163944881889764
 20
1.066779527559055
 30
0.0
 10
-3.178740157480315
 20
1.144031496062992
 30
0.0
 10
-3.157311023622047
 20
1.179590551181102
 30
0.0
 10
-3.070129921259842
 20
1.1375
 30
0.0
 10
-3.070129921259842
 20
1.1375
 30
0.0
 10
-3.062055118110236
 20
1.209811023622047
 30
0.0
 10
-3.023586614173228
 20
1.219251968503937
 30
0.0
 10
-2.96311811023622
 20
1.181429133858268
 30
0.0
 10
-2.96311811023622
 20
1.181429133858268
 30
0.0
 10
-2.932503937007874
 20
1.24957874015748
 30
0.0
 10
-2.894007874015748
 20
1.260114173228347
 30
0.0
 10
-2.845917322834646
 20
1.196744094488189
 30
0.0
 10
-2.845917322834646
 20
1.196744094488189
 30
0.0
 10
-2.80203937007874
 20
1.23938188976378
 30
0.0
 10
-2.759614173228346
 20
1.261007874015748
 30
0.0
 10
-2.733027559055118
 20
1.182555118110236
 30
0.0
 10
-2.733027559055118
 20
1.182555118110236
 30
0.0
 10
-2.672641732283465
 20
1.216003937007874
 30
0.0
 10
-2.628614173228347
 20
1.216858267716535
 30
0.0
 10
-2.625582677165355
 20
1.139681102362205
 30
0.0
 10
-2.625582677165355
 20
1.139681102362205
 30
0.0
 10
-2.563220472440945
 20
1.163799212598425
 30
0.0
 10
-2.515665354330709
 20
1.164035433070866
 30
0.0
 10
-2.530763779527559
 20
1.068200787401575
 30
0.0
 10
-2.530763779527559
 20
1.068200787401575
 30
0.0
 10
-2.459657480314961
 20
1.077444881889764
 30
0.0
 10
-2.421448818897638
 20
1.056106299212598
 30
0.0
 10
-2.453444881889764
 20
0.9722677165354331
 30
0.0
 10
-2.453444881889764
 20
0.9722677165354331
 30
0.0
 10
-2.390653543307087
 20
0.9636102362204725
 30
0.0
 10
-2.354850393700787
 20
0.9371535433070867
 30
0.0
 10
-2.403763779527559
 20
0.8565433070866142
 30
0.0
 10
-2.403763779527559
 20
0.8565433070866142
 30
0.0
 10
-2.345464566929134
 20
0.8349133858267717
 30
0.0
 10
-2.325649606299212
 20
0.7988346456692913
 30
0.0
 10
-2.387976377952756
 20
0.7333897637795276
 30
0.0
 10
-2.387976377952756
 20
0.7333897637795276
 30
0.0
 10
-2.338169291338583
 20
0.6848897637795276
 30
0.0
 10
-2.338409448818898
 20
0.6420314960629921
 30
0.0
 10
-2.405145669291338
 20
0.607271653543307
 30
0.0
 10
-2.405145669291338
 20
0.607271653543307
 30
0.0
 10
-2.366649606299212
 20
0.5381338582677165
 30
0.0
 10
-2.383283464566929
 20
0.4988031496062992
 30
0.0
 10
-2.455586614173229
 20
0.4909527559055118
 30
0.0
 10
-2.455586614173229
 20
0.4909527559055118
 30
0.0
 10
-2.435224409448819
 20
0.4141692913385827
 30
0.0
 10
-2.453358267716535
 20
0.3745275590551181
 30
0.0
 10
-2.532149606299213
 20
0.3958897637795276
 30
0.0
  0
SPLINE
  5
4F
330
1F
100
AcDbEntity
  8
Layer 1
 62
     1
370
     9
100
AcDbSpline
210
0.0
220
0.0
230
1.0
 70
     8
 71
     3
 72
    76
 73
    72
 74
     0
 42
0.0000000001
 43
0.0000000001
 40
0.0
 40
0.0
 40
0.0
 40
0.0
 40
0.0526315789473684
 40
0.0526315789473684
 40
0.0526315789473684
 40
0.0526315789473684
 40
0.1052631578947368
 40
0.1052631578947368
 40
0.1052631578947368
 40
0.1052631578947368
 40
0.1578947368421053
 40
0.1578947368421053
 40
0.1578947368421053
 40
0.1578947368421053
 40
0.2105263157894737
 40
0.2105263157894737
 40
0.2105263157894737
 40
0.2105263157894737
 40
0.2631578947368421
 40
0.2631578947368421
 40
0.2631578947368421
 40
0.2631578947368421
 40
0.3157894736842105
 40
0.3157894736842105
 40
0.3157894736842105
 40
0.3157894736842105
 40
0.3684210526315789
 40
0.3684210526315789
 40
0.3684210526315789
 40
0.3684210526315789
 40
0.4210526315789473
 40
0.4210526315789473
 40
0.4210526315789473
 40
0.4210526315789473
 40
0.4736842105263158
 40
0.4736842105263158
 40
0.4736842105263158
 40
0.4736842105263158
 40
0.5263157894736842
 40
0.5263157894736842
 40
0.5263157894736842
 40
0.5263157894736842
 40
0.5789473684210527
 40
0.5789473684210527
 40
0.5789473684210527
 40
0.5789473684210527
 40
0.631578947368421
 40
0.631578947368421
 40
0.631578947368421
 40
0.631578947368421
 40
0.6842105263157895
 40
0.6842105263157895
 40
0.6842105263157895
 40
0.6842105263157895
 40
0.7368421052631579
 40
0.7368421052631579
 40
0.7368421052631579
 40
0.7368421052631579
 40
0.7894736842105263
 40
0.7894736842105263
 40
0.7894736842105263
 40
0.7894736842105263
 40
0.8421052631578947
 40
0.8421052631578947
 40
0.8421052631578947
 40
0.8421052631578947
 40
0.8947368421052632
 40
0.8947368421052632
 40
0.8947368421052632
 40
0.8947368421052632
 40
1.0
 40
1.0
 40
1.0
 40
1.0
 10
-3.07444094488189
 20
0.4989645669291339
 30
0.0
 10
-3.147338582677165
 20
0.4772952755905512
 30
0.0
 10
-3.139255905511811
 20
0.5224291338582677
 30
0.0
 10
-3.129354330708662
 20
0.5685748031496063
 30
0.0
 10
-3.129354330708662
 20
0.5685748031496063
 30
0.0
 10
-3.200173228346457
 20
0.5638700787401575
 30
0.0
 10
-3.19605905511811
 20
0.599248031496063
 30
0.0
 10
-3.163696850393701
 20
0.6491771653543307
 30
0.0
 10
-3.163696850393701
 20
0.6491771653543307
 30
0.0
 10
-3.235330708661417
 20
0.661011811023622
 30
0.0
 10
-3.209425196850394
 20
0.699228346456693
 30
0.0
 10
-3.175913385826772
 20
0.7393307086614174
 30
0.0
 10
-3.175913385826772
 20
0.7393307086614174
 30
0.0
 10
-3.229464566929134
 20
0.7811062992125984
 30
0.0
 10
-3.207744094488189
 20
0.8074409448818898
 30
0.0
 10
-3.163968503937008
 20
0.828496062992126
 30
0.0
 10
-3.163968503937008
 20
0.828496062992126
 30
0.0
 10
-3.197062992125984
 20
0.8779015748031496
 30
0.0
 10
-3.182657480314961
 20
0.9035944881889764
 30
0.0
 10
-3.129814960629921
 20
0.9093228346456693
 30
0.0
 10
-3.129814960629921
 20
0.9093228346456693
 30
0.0
 10
-3.150531496062992
 20
0.9654566929133859
 30
0.0
 10
-3.132929133858268
 20
0.9894055118110237
 30
0.0
 10
-3.075448818897638
 20
0.9787204724409448
 30
0.0
 10
-3.075448818897638
 20
0.9787204724409448
 30
0.0
 10
-3.086070866141732
 20
1.034192913385827
 30
0.0
 10
-3.070685039370079
 20
1.059724409448819
 30
0.0
 10
-3.008086614173228
 20
1.029503937007874
 30
0.0
 10
-3.008086614173228
 20
1.029503937007874
 30
0.0
 10
-3.002287401574803
 20
1.08142125984252
 30
0.0
 10
-2.974665354330709
 20
1.088200787401575
 30
0.0
 10
-2.931248031496063
 20
1.061043307086614
 30
0.0
 10
-2.931248031496063
 20
1.061043307086614
 30
0.0
 10
-2.909263779527559
 20
1.10998031496063
 30
0.0
 10
-2.881622047244095
 20
1.117543307086614
 30
0.0
 10
-2.847090551181102
 20
1.07203937007874
 30
0.0
 10
-2.847090551181102
 20
1.07203937007874
 30
0.0
 10
-2.815582677165354
 20
1.102657480314961
 30
0.0
 10
-2.785122047244094
 20
1.118188976377953
 30
0.0
 10
-2.766031496062992
 20
1.061854330708661
 30
0.0
 10
-2.766031496062992
 20
1.061854330708661
 30
0.0
 10
-2.722669291338583
 20
1.085874015748032
 30
0.0
 10
-2.691055118110236
 20
1.086484251968504
 30
0.0
 10
-2.688877952755905
 20
1.031070866141732
 30
0.0
 10
-2.688877952755905
 20
1.031070866141732
 30
0.0
 10
-2.64409842519685
 20
1.048385826771653
 30
0.0
 10
-2.609952755905512
 20
1.048555118110236
 30
0.0
 10
-2.620791338582677
 20
0.979740157480315
 30
0.0
 10
-2.620791338582677
 20
0.979740157480315
 30
0.0
 10
-2.569732283464567
 20
0.9863779527559056
 30
0.0
 10
-2.542299212598425
 20
0.9710590551181102
 30
0.0
 10
-2.565275590551181
 20
0.9108582677165354
 30
0.0
 10
-2.565275590551181
 20
0.9108582677165354
 30
0.0
 10
-2.520188976377953
 20
0.9046377952755905
 30
0.0
 10
-2.49448031496063
 20
0.8856417322834645
 30
0.0
 10
-2.529602362204725
 20
0.8277637795275591
 30
0.0
 10
-2.529602362204725
 20
0.8277637795275591
 30
0.0
 10
-2.487740157480315
 20
0.8122322834645669
 30
0.0
 10
-2.473515748031496
 20
0.7863228346456693
 30
0.0
 10
-2.518267716535433
 20
0.7393307086614174
 30
0.0
 10
-2.518267716535433
 20
0.7393307086614174
 30
0.0
 10
-2.482503937007874
 20
0.7045039370078741
 30
0.0
 10
-2.482673228346457
 20
0.6737322834645669
 30
0.0
 10
-2.530594488188977
 20
0.6487716535433071
 30
0.0
 10
-2.530594488188977
 20
0.6487716535433071
 30
0.0
 10
-2.502952755905512
 20
0.5991299212598425
 30
0.0
 10
-2.514897637795276
 20
0.5708858267716536
 30
0.0
 10
-2.566814960629921
 20
0.565248031496063
 30
0.0
 10
-2.566814960629921
 20
0.565248031496063
 30
0.0
 10
-2.552192913385827
 20
0.5101141732283464
 30
0.0
 10
-2.565212598425197
 20
0.4816496062992126
 30
0.0
 10
-2.621791338582677
 20
0.496992125984252
 30
0.0
  0
SPLINE
  5
50
330
1F
100
AcDbEntity
  8
Layer 1
 62
     1
370
     9
100
AcDbSpline
210
0.0
220
0.0
230
1.0
 70
     8
 71
     3
 72
    76
 73
    72
 74
     0
 42
0.0000000001
 43
0.0000000001
 40
0.0
 40
0.0
 40
0.0
 40
0.0
 40
0.0526315789473684
 40
0.0526315789473684
 40
0.0526315789473684
 40
0.0526315789473684
 40
0.1052631578947368
 40
0.1052631578947368
 40
0.1052631578947368
 40
0.1052631578947368
 40
0.1578947368421053
 40
0.1578947368421053
 40
0.1578947368421053
 40
0.1578947368421053
 40
0.2105263157894737
 40
0.2105263157894737
 40
0.2105263157894737
 40
0.2105263157894737
 40
0.2631578947368421
 40
0.2631578947368421
 40
0.2631578947368421
 40
0.2631578947368421
 40
0.3157894736842105
 40
0.3157894736842105
 40
0.3157894736842105
 40
0.3157894736842105
 40
0.3684210526315789
 40
0.3684210526315789
 40
0.3684210526315789
 40
0.3684210526315789
 40
0.4210526315789473
 40
0.4210526315789473
 40
0.4210526315789473
 40
0.4210526315789473
 40
0.4736842105263158
 40
0.4736842105263158
 40
0.4736842105263158
 40
0.4736842105263158
 40
0.5263157894736842
 40
0.5263157894736842
 40
0.5263157894736842
 40
0.5263157894736842
 40
0.5789473684210527
 40
0.5789473684210527
 40
0.5789473684210527
 40
0.5789473684210527
 40
0.631578947368421
 40
0.631578947368421
 40
0.631578947368421
 40
0.631578947368421
 40
0.6842105263157895
 40
0.6842105263157895
 40
0.6842105263157895
 40
0.6842105263157895
 40
0.7368421052631579
 40
0.7368421052631579
 40
0.7368421052631579
 40
0.7368421052631579
 40
0.7894736842105263
 40
0.7894736842105263
 40
0.7894736842105263
 40
0.7894736842105263
 40
0.8421052631578947
 40
0.8421052631578947
 40
0.8421052631578947
 40
0.8421052631578947
 40
0.8947368421052632
 40
0.8947368421052632
 40
0.8947368421052632
 40
0.8947368421052632
 40
1.0
 40
1.0
 40
1.0
 40
1.0
 10
-3.007661417322835
 20
0.575007874015748
 30
0.0
 10
-3.058862204724409
 20
0.5597874015748031
 30
0.0
 10
-3.053185039370079
 20
0.5914921259842519
 30
0.0
 10
-3.046232283464567
 20
0.6238976377952756
 30
0.0
 10
-3.046232283464567
 20
0.6238976377952756
 30
0.0
 10
-3.095972440944882
 20
0.6205984251968504
 30
0.0
 10
-3.093082677165354
 20
0.6454448818897638
 30
0.0
 10
-3.070350393700787
 20
0.680511811023622
 30
0.0
 10
-3.070350393700787
 20
0.680511811023622
 30
0.0
 10
-3.120665354330709
 20
0.6888267716535433
 30
0.0
 10
-3.102472440944882
 20
0.7156653543307087
 30
0.0
 10
-3.078933070866142
 20
0.7438346456692914
 30
0.0
 10
-3.078933070866142
 20
0.7438346456692914
 30
0.0
 10
-3.116543307086614
 20
0.7731771653543307
 30
0.0
 10
-3.101287401574803
 20
0.7916692913385827
 30
0.0
 10
-3.070543307086614
 20
0.8064606299212599
 30
0.0
 10
-3.070543307086614
 20
0.8064606299212599
 30
0.0
 10
-3.093787401574803
 20
0.8411574803149606
 30
0.0
 10
-3.083669291338583
 20
0.8592047244094488
 30
0.0
 10
-3.046555118110236
 20
0.8632283464566929
 30
0.0
 10
-3.046555118110236
 20
0.8632283464566929
 30
0.0
 10
-3.061106299212598
 20
0.9026574803149606
 30
0.0
 10
-3.048740157480315
 20
0.9194803149606299
 30
0.0
 10
-3.008370078740157
 20
0.9119685039370079
 30
0.0
 10
-3.008370078740157
 20
0.9119685039370079
 30
0.0
 10
-3.015830708661417
 20
0.9509330708661418
 30
0.0
 10
-3.005023622047244
 20
0.9688661417322835
 30
0.0
 10
-2.96105905511811
 20
0.9476417322834646
 30
0.0
 10
-2.96105905511811
 20
0.9476417322834646
 30
0.0
 10
-2.956984251968504
 20
0.9841062992125984
 30
0.0
 10
-2.937582677165354
 20
0.9888661417322835
 30
0.0
 10
-2.907090551181102
 20
0.9697913385826772
 30
0.0
 10
-2.907090551181102
 20
0.9697913385826772
 30
0.0
 10
-2.891649606299213
 20
1.004165354330709
 30
0.0
 10
-2.872232283464567
 20
1.009476377952756
 30
0.0
 10
-2.84798031496063
 20
0.97751968503937
 30
0.0
 10
-2.84798031496063
 20
0.97751968503937
 30
0.0
 10
-2.825850393700787
 20
0.999023622047244
 30
0.0
 10
-2.804452755905512
 20
1.009929133858268
 30
0.0
 10
-2.791047244094488
 20
0.9703622047244095
 30
0.0
 10
-2.791047244094488
 20
0.9703622047244095
 30
0.0
 10
-2.760590551181102
 20
0.9872283464566929
 30
0.0
 10
-2.738385826771653
 20
0.9876614173228346
 30
0.0
 10
-2.736858267716535
 20
0.9487401574803149
 30
0.0
 10
-2.736858267716535
 20
0.9487401574803149
 30
0.0
 10
-2.705405511811024
 20
0.9609015748031496
 30
0.0
 10
-2.681425196850394
 20
0.9610196850393701
 30
0.0
 10
-2.689035433070866
 20
0.9126889763779528
 30
0.0
 10
-2.689035433070866
 20
0.9126889763779528
 30
0.0
 10
-2.653173228346457
 20
0.9173503937007874
 30
0.0
 10
-2.633905511811024
 20
0.9065866141732284
 30
0.0
 10
-2.650043307086614
 20
0.8643070866141732
 30
0.0
 10
-2.650043307086614
 20
0.8643070866141732
 30
0.0
 10
-2.618377952755905
 20
0.8599409448818898
 30
0.0
 10
-2.600318897637795
 20
0.8465984251968504
 30
0.0
 10
-2.624988188976378
 20
0.8059448818897638
 30
0.0
 10
-2.624988188976378
 20
0.8059448818897638
 30
0.0
 10
-2.595586614173228
 20
0.7950354330708661
 30
0.0
 10
-2.585594488188976
 20
0.7768385826771653
 30
0.0
 10
-2.617027559055118
 20
0.7438346456692914
 30
0.0
 10
-2.617027559055118
 20
0.7438346456692914
 30
0.0
 10
-2.591909448818898
 20
0.7193740157480315
 30
0.0
 10
-2.592027559055118
 20
0.697759842519685
 30
0.0
 10
-2.625685039370079
 20
0.680228346456693
 30
0.0
 10
-2.625685039370079
 20
0.680228346456693
 30
0.0
 10
-2.606271653543307
 20
0.6453582677165355
 30
0.0
 10
-2.61465748031496
 20
0.6255236220472441
 30
0.0
 10
-2.651125984251968
 20
0.6215629921259842
 30
0.0
 10
-2.651125984251968
 20
0.6215629921259842
 30
0.0
 10
-2.640854330708661
 20
0.5828425196850394
 30
0.0
 10
-2.65
 20
0.5628464566929133
 30
0.0
 10
-2.689736220472441
 20
0.5736220472440945
 30
0.0
  0
SPLINE
  5
51
330
1F
100
AcDbEntity
  8
Layer 1
 62
     5
370
     9
100
AcDbSpline
210
0.0
220
0.0
230
1.0
 70
    11
 71
     3
 72
   108
 73
   104
 74
     0
 42
0.0000000001
 43
0.0000000001
 40
0.0
 40
0.0
 40
0.0
 40
0.0
 40
0.037037037037037
 40
0.037037037037037
 40
0.037037037037037
 40
0.037037037037037
 40
0.0740740740740741
 40
0.0740740740740741
 40
0.0740740740740741
 40
0.0740740740740741
 40
0.1111111111111111
 40
0.1111111111111111
 40
0.1111111111111111
 40
0.1111111111111111
 40
0.1481481481481481
 40
0.1481481481481481
 40
0.1481481481481481
 40
0.1481481481481481
 40
0.1851851851851852
 40
0.1851851851851852
 40
0.1851851851851852
 40
0.1851851851851852
 40
0.2222222222222222
 40
0.2222222222222222
 40
0.2222222222222222
 40
0.2222222222222222
 40
0.2592592592592592
 40
0.2592592592592592
 40
0.2592592592592592
 40
0.2592592592592592
 40
0.2962962962962963
 40
0.2962962962962963
 40
0.2962962962962963
 40
0.2962962962962963
 40
0.3333333333333333
 40
0.3333333333333333
 40
0.3333333333333333
 40
0.3333333333333333
 40
0.3703703703703703
 40
0.3703703703703703
 40
0.3703703703703703
 40
0.3703703703703703
 40
0.4074074074074074
 40
0.4074074074074074
 40
0.4074074074074074
 40
0.4074074074074074
 40
0.4444444444444444
 40
0.4444444444444444
 40
0.4444444444444444
 40
0.4444444444444444
 40
0.4814814814814815
 40
0.4814814814814815
 40
0.4814814814814815
 40
0.4814814814814815
 40
0.5185185185185185
 40
0.5185185185185185
 40
0.5185185185185185
 40
0.5185185185185185
 40
0.5555555555555556
 40
0.5555555555555556
 40
0.5555555555555556
 40
0.5555555555555556
 40
0.5925925925925926
 40
0.5925925925925926
 40
0.5925925925925926
 40
0.5925925925925926
 40
0.6296296296296297
 40
0.6296296296296297
 40
0.6296296296296297
 40
0.6296296296296297
 40
0.6666666666666666
 40
0.6666666666666666
 40
0.6666666666666666
 40
0.6666666666666666
 40
0.7037037037037037
 40
0.7037037037037037
 40
0.7037037037037037
 40
0.7037037037037037
 40
0.7407407407407407
 40
0.7407407407407407
 40
0.7407407407407407
 40
0.7407407407407407
 40
0.7777777777777778
 40
0.7777777777777778
 40
0.7777777777777778
 40
0.7777777777777778
 40
0.8148148148148148
 40
0.8148148148148148
 40
0.8148148148148148
 40
0.8148148148148148
 40
0.8518518518518519
 40
0.8518518518518519
 40
0.8518518518518519
 40
0.8518518518518519
 40
0.8888888888888888
 40
0.8888888888888888
 40
0.8888888888888888
 40
0.8888888888888888
 40
0.9259259259259259
 40
0.9259259259259259
 40
0.9259259259259259
 40
0.9259259259259259
 40
1.0
 40
1.0
 40
1.0
 40
1.0
 10
-2.791110236220472
 20
1.616826771653543
 30
0.0
 10
-2.582586614173228
 20
1.604476377952756
 30
0.0
 10
-2.393858267716535
 20
1.523381889763779
 30
0.0
 10
-2.244866141732283
 20
1.395334645669291
 30
0.0
 10
-2.244866141732283
 20
1.395334645669291
 30
0.0
 10
-2.244866141732283
 20
1.395334645669291
 30
0.0
 10
-2.347283464566929
 20
1.30311811023622
 30
0.0
 10
-2.347283464566929
 20
1.30311811023622
 30
0.0
 10
-2.347283464566929
 20
1.30311811023622
 30
0.0
 10
-2.347283464566929
 20
1.30311811023622
 30
0.0
 10
-2.272114173228347
 20
1.219657480314961
 30
0.0
 10
-2.272114173228347
 20
1.219657480314961
 30
0.0
 10
-2.272114173228347
 20
1.219657480314961
 30
0.0
 10
-2.272114173228347
 20
1.219657480314961
 30
0.0
 10
-2.16405905511811
 20
1.316948818897638
 30
0.0
 10
-2.16405905511811
 20
1.316948818897638
 30
0.0
 10
-2.16405905511811
 20
1.316948818897638
 30
0.0
 10
-2.025696850393701
 20
1.165933070866142
 30
0.0
 10
-1.936913385826772
 20
0.9701220472440945
 30
0.0
 10
-1.922374015748032
 20
0.7525708661417323
 30
0.0
 10
-1.922374015748032
 20
0.7525708661417323
 30
0.0
 10
-1.922374015748032
 20
0.7525708661417323
 30
0.0
 10
-2.056515748031496
 20
0.7643070866141732
 30
0.0
 10
-2.056515748031496
 20
0.7643070866141732
 30
0.0
 10
-2.056515748031496
 20
0.7643070866141732
 30
0.0
 10
-2.056515748031496
 20
0.7643070866141732
 30
0.0
 10
-2.066106299212598
 20
0.6524291338582677
 30
0.0
 10
-2.066106299212598
 20
0.6524291338582677
 30
0.0
 10
-2.066106299212598
 20
0.6524291338582677
 30
0.0
 10
-2.066106299212598
 20
0.6524291338582677
 30
0.0
 10
-1.921433070866142
 20
0.6397716535433071
 30
0.0
 10
-1.921433070866142
 20
0.6397716535433071
 30
0.0
 10
-1.921433070866142
 20
0.6397716535433071
 30
0.0
 10
-1.936216535433071
 20
0.351
 30
0.0
 10
-2.082330708661417
 20
0.0977322834645669
 30
0.0
 10
-2.30111811023622
 20
-0.0624566929133858
 30
0.0
 10
-2.30111811023622
 20
-0.0624566929133858
 30
0.0
 10
-2.30111811023622
 20
-0.0624566929133858
 30
0.0
 10
-2.791181102362205
 20
-0.0624566929133858
 30
0.0
 10
-2.791181102362205
 20
-0.0624566929133858
 30
0.0
 10
-2.791181102362205
 20
-0.0624566929133858
 30
0.0
 10
-2.791181102362205
 20
-0.0624566929133858
 30
0.0
 10
-2.790200787401575
 20
0.5951062992125984
 30
0.0
 10
-2.790200787401575
 20
0.5951062992125984
 30
0.0
 10
-2.790200787401575
 20
0.5951062992125984
 30
0.0
 10
-2.790200787401575
 20
0.5951062992125984
 30
0.0
 10
-2.903826771653543
 20
0.5951023622047245
 30
0.0
 10
-2.903826771653543
 20
0.5951023622047245
 30
0.0
 10
-2.903826771653543
 20
0.5951023622047245
 30
0.0
 10
-2.903826771653543
 20
0.5951023622047245
 30
0.0
 10
-2.903826771653543
 20
-0.0624606299212598
 30
0.0
 10
-2.903826771653543
 20
-0.0624606299212598
 30
0.0
 10
-2.903826771653543
 20
-0.0624606299212598
 30
0.0
 10
-2.903826771653543
 20
-0.0624606299212598
 30
0.0
 10
-3.393240157480315
 20
-0.0624606299212598
 30
0.0
 10
-3.393240157480315
 20
-0.0624606299212598
 30
0.0
 10
-3.393240157480315
 20
-0.0624606299212598
 30
0.0
 10
-3.612031496062992
 20
0.0977362204724409
 30
0.0
 10
-3.758220472440945
 20
0.3510748031496063
 30
0.0
 10
-3.773003937007874
 20
0.6398503937007874
 30
0.0
 10
-3.773003937007874
 20
0.6398503937007874
 30
0.0
 10
-3.773003937007874
 20
0.6398503937007874
 30
0.0
 10
-3.628326771653543
 20
0.652503937007874
 30
0.0
 10
-3.628326771653543
 20
0.652503937007874
 30
0.0
 10
-3.628326771653543
 20
0.652503937007874
 30
0.0
 10
-3.628326771653543
 20
0.652503937007874
 30
0.0
 10
-3.638
 20
0.7644685039370078
 30
0.0
 10
-3.638
 20
0.7644685039370078
 30
0.0
 10
-3.638
 20
0.7644685039370078
 30
0.0
 10
-3.638
 20
0.7644685039370078
 30
0.0
 10
-3.772145669291338
 20
0.7527322834645669
 30
0.0
 10
-3.772145669291338
 20
0.7527322834645669
 30
0.0
 10
-3.772145669291338
 20
0.7527322834645669
 30
0.0
 10
-3.757606299212598
 20
0.9702874015748032
 30
0.0
 10
-3.66842125984252
 20
1.166007874015748
 30
0.0
 10
-3.530055118110236
 20
1.317027559055118
 30
0.0
 10
-3.530055118110236
 20
1.317027559055118
 30
0.0
 10
-3.530055118110236
 20
1.317027559055118
 30
0.0
 10
-3.421996062992126
 20
1.219728346456693
 30
0.0
 10
-3.421996062992126
 20
1.219728346456693
 30
0.0
 10
-3.421996062992126
 20
1.219728346456693
 30
0.0
 10
-3.421996062992126
 20
1.219728346456693
 30
0.0
 10
-3.347074803149606
 20
1.302874015748031
 30
0.0
 10
-3.347074803149606
 20
1.302874015748031
 30
0.0
 10
-3.347074803149606
 20
1.302874015748031
 30
0.0
 10
-3.347074803149606
 20
1.302874015748031
 30
0.0
 10
-3.449492125984252
 20
1.395090551181102
 30
0.0
 10
-3.449492125984252
 20
1.395090551181102
 30
0.0
 10
-3.449492125984252
 20
1.395090551181102
 30
0.0
 10
-3.3005
 20
1.523133858267717
 30
0.0
 10
-3.111850393700788
 20
1.604397637795276
 30
0.0
 10
-2.903326771653543
 20
1.616748031496063
 30
0.0
 10
-2.903326771653543
 20
1.616748031496063
 30
0.0
 10
-2.903326771653543
 20
1.616748031496063
 30
0.0
 10
-2.903326771653543
 20
1.476535433070866
 30
0.0
 10
-2.903326771653543
 20
1.476535433070866
 30
0.0
 10
-2.903326771653543
 20
1.476535433070866
 30
0.0
 10
-2.903326771653543
 20
1.476535433070866
 30
0.0
 10
-2.791110236220472
 20
1.476614173228346
 30
0.0
 10
-2.791110236220472
 20
1.476614173228346
 30
0.0
 10
-2.791110236220472
 20
1.476614173228346
 30
0.0
 10
-2.791110236220472
 20
1.476614173228346
 30
0.0
 10
-2.791110236220472
 20
1.616826771653543
 30
0.0
 10
-2.791110236220472
 20
1.616826771653543
 30
0.0
  0
SPLINE
  5
52
330
1F
100
AcDbEntity
  8
Layer 1
 62
     3
370
     9
100
AcDbSpline
210
0.0
220
0.0
230
1.0
 70
    11
 71
     3
 72
    48
 73
    44
 74
     0
 42
0.0000000001
 43
0.0000000001
 40
0.0
 40
0.0
 40
0.0
 40
0.0
 40
0.0833333333333333
 40
0.0833333333333333
 40
0.0833333333333333
 40
0.0833333333333333
 40
0.1666666666666667
 40
0.1666666666666667
 40
0.1666666666666667
 40
0.1666666666666667
 40
0.25
 40
0.25
 40
0.25
 40
0.25
 40
0.3333333333333333
 40
0.3333333333333333
 40
0.3333333333333333
 40
0.3333333333333333
 40
0.4166666666666667
 40
0.4166666666666667
 40
0.4166666666666667
 40
0.4166666666666667
 40
0.5
 40
0.5
 40
0.5
 40
0.5
 40
0.5833333333333334
 40
0.5833333333333334
 40
0.5833333333333334
 40
0.5833333333333334
 40
0.6666666666666666
 40
0.6666666666666666
 40
0.6666666666666666
 40
0.6666666666666666
 40
0.75
 40
0.75
 40
0.75
 40
0.75
 40
0.8333333333333334
 40
0.8333333333333334
 40
0.8333333333333334
 40
0.8333333333333334
 40
1.0
 40
1.0
 40
1.0
 40
1.0
 10
-0.9499291338582677
 20
2.132409448818898
 30
0.0
 10
-0.9499291338582677
 20
2.132409448818898
 30
0.0
 10
-0.9521023622047244
 20
2.123748031496063
 30
0.0
 10
-0.9521023622047244
 20
2.123748031496063
 30
0.0
 10
-0.9521023622047244
 20
2.123748031496063
 30
0.0
 10
-0.9521023622047244
 20
2.123748031496063
 30
0.0
 10
-0.9718937007874016
 20
2.065374015748032
 30
0.0
 10
-0.9718937007874016
 20
2.065374015748032
 30
0.0
 10
-0.9718937007874016
 20
2.065374015748032
 30
0.0
 10
-0.9718937007874016
 20
2.065374015748032
 30
0.0
 10
-0.9963779527559055
 20
2.008744094488189
 30
0.0
 10
-0.9963779527559055
 20
2.008744094488189
 30
0.0
 10
-0.9963779527559055
 20
2.008744094488189
 30
0.0
 10
-0.9963779527559055
 20
2.008744094488189
 30
0.0
 10
-1.025358267716535
 20
1.954291338582677
 30
0.0
 10
-1.025358267716535
 20
1.954291338582677
 30
0.0
 10
-1.025358267716535
 20
1.954291338582677
 30
0.0
 10
-1.025358267716535
 20
1.954291338582677
 30
0.0
 10
-1.058645669291339
 20
1.902377952755905
 30
0.0
 10
-1.058645669291339
 20
1.902377952755905
 30
0.0
 10
-1.058645669291339
 20
1.902377952755905
 30
0.0
 10
-1.058645669291339
 20
1.902377952755905
 30
0.0
 10
-1.091937007874016
 20
1.954291338582677
 30
0.0
 10
-1.091937007874016
 20
1.954291338582677
 30
0.0
 10
-1.091937007874016
 20
1.954291338582677
 30
0.0
 10
-1.091937007874016
 20
1.954291338582677
 30
0.0
 10
-1.120909448818898
 20
2.008732283464567
 30
0.0
 10
-1.120909448818898
 20
2.008732283464567
 30
0.0
 10
-1.120909448818898
 20
2.008732283464567
 30
0.0
 10
-1.120909448818898
 20
2.008732283464567
 30
0.0
 10
-1.145377952755906
 20
2.065334645669291
 30
0.0
 10
-1.145377952755906
 20
2.065334645669291
 30
0.0
 10
-1.145377952755906
 20
2.065334645669291
 30
0.0
 10
-1.145377952755906
 20
2.065334645669291
 30
0.0
 10
-1.165188976377953
 20
2.123740157480315
 30
0.0
 10
-1.165188976377953
 20
2.123740157480315
 30
0.0
 10
-1.165188976377953
 20
2.123740157480315
 30
0.0
 10
-1.165188976377953
 20
2.123740157480315
 30
0.0
 10
-1.167366141732283
 20
2.132409448818898
 30
0.0
 10
-1.167366141732283
 20
2.132409448818898
 30
0.0
 10
-1.167366141732283
 20
2.132409448818898
 30
0.0
 10
-1.167366141732283
 20
2.132409448818898
 30
0.0
 10
-0.9499291338582677
 20
2.132409448818898
 30
0.0
 10
-0.9499291338582677
 20
2.132409448818898
 30
0.0
  0
SPLINE
  5
53
330
1F
100
AcDbEntity
  8
Layer 1
 62
     5
370
     9
100
AcDbSpline
210
0.0
220
0.0
230
1.0
 70
    11
 71
     3
 72
   120
 73
   116
 74
     0
 42
0.0000000001
 43
0.0000000001
 40
0.0
 40
0.0
 40
0.0
 40
0.0
 40
0.0333333333333333
 40
0.0333333333333333
 40
0.0333333333333333
 40
0.0333333333333333
 40
0.0666666666666667
 40
0.0666666666666667
 40
0.0666666666666667
 40
0.0666666666666667
 40
0.1
 40
0.1
 40
0.1
 40
0.1
 40
0.1333333333333333
 40
0.1333333333333333
 40
0.1333333333333333
 40
0.1333333333333333
 40
0.1666666666666667
 40
0.1666666666666667
 40
0.1666666666666667
 40
0.1666666666666667
 40
0.2
 40
0.2
 40
0.2
 40
0.2
 40
0.2333333333333333
 40
0.2333333333333333
 40
0.2333333333333333
 40
0.2333333333333333
 40
0.2666666666666667
 40
0.2666666666666667
 40
0.2666666666666667
 40
0.2666666666666667
 40
0.3
 40
0.3
 40
0.3
 40
0.3
 40
0.3333333333333333
 40
0.3333333333333333
 40
0.3333333333333333
 40
0.3333333333333333
 40
0.3666666666666666
 40
0.3666666666666666
 40
0.3666666666666666
 40
0.3666666666666666
 40
0.4
 40
0.4
 40
0.4
 40
0.4
 40
0.4333333333333333
 40
0.4333333333333333
 40
0.4333333333333333
 40
0.4333333333333333
 40
0.4666666666666667
 40
0.4666666666666667
 40
0.4666666666666667
 40
0.4666666666666667
 40
0.5
 40
0.5
 40
0.5
 40
0.5
 40
0.5333333333333333
 40
0.5333333333333333
 40
0.5333333333333333
 40
0.5333333333333333
 40
0.5666666666666667
 40
0.5666666666666667
 40
0.5666666666666667
 40
0.5666666666666667
 40
0.6
 40
0.6
 40
0.6
 40
0.6
 40
0.6333333333333333
 40
0.6333333333333333
 40
0.6333333333333333
 40
0.6333333333333333
 40
0.6666666666666666
 40
0.6666666666666666
 40
0.6666666666666666
 40
0.6666666666666666
 40
0.7
 40
0.7
 40
0.7
 40
0.7
 40
0.7333333333333333
 40
0.7333333333333333
 40
0.7333333333333333
 40
0.7333333333333333
 40
0.7666666666666667
 40
0.7666666666666667
 40
0.7666666666666667
 40
0.7666666666666667
 40
0.8
 40
0.8
 40
0.8
 40
0.8
 40
0.8333333333333334
 40
0.8333333333333334
 40
0.8333333333333334
 40
0.8333333333333334
 40
0.8666666666666667
 40
0.8666666666666667
 40
0.8666666666666667
 40
0.8666666666666667
 40
0.9
 40
0.9
 40
0.9
 40
0.9
 40
0.9333333333333333
 40
0.9333333333333333
 40
0.9333333333333333
 40
0.9333333333333333
 40
1.0
 40
1.0
 40
1.0
 40
1.0
 10
-0.7678700787401574
 20
2.500267716535433
 30
0.0
 10
-0.7678700787401574
 20
2.500267716535433
 30
0.0
 10
-0.7788464566929134
 20
2.369570866141732
 30
0.0
 10
-0.7788464566929134
 20
2.369570866141732
 30
0.0
 10
-0.7788464566929134
 20
2.369570866141732
 30
0.0
 10
-0.7788464566929134
 20
2.369570866141732
 30
0.0
 10
-0.8003661417322835
 20
2.240291338582677
 30
0.0
 10
-0.8003661417322835
 20
2.240291338582677
 30
0.0
 10
-0.8003661417322835
 20
2.240291338582677
 30
0.0
 10
-0.8003661417322835
 20
2.240291338582677
 30
0.0
 10
-0.832259842519685
 20
2.113220472440945
 30
0.0
 10
-0.832259842519685
 20
2.113220472440945
 30
0.0
 10
-0.832259842519685
 20
2.113220472440945
 30
0.0
 10
-0.832259842519685
 20
2.113220472440945
 30
0.0
 10
-0.8743149606299213
 20
1.989185039370079
 30
0.0
 10
-0.8743149606299213
 20
1.989185039370079
 30
0.0
 10
-0.8743149606299213
 20
1.989185039370079
 30
0.0
 10
-0.8743149606299213
 20
1.989185039370079
 30
0.0
 10
-0.9263385826771654
 20
1.868858267716536
 30
0.0
 10
-0.9263385826771654
 20
1.868858267716536
 30
0.0
 10
-0.9263385826771654
 20
1.868858267716536
 30
0.0
 10
-0.9263385826771654
 20
1.868858267716536
 30
0.0
 10
-0.9879173228346456
 20
1.753153543307087
 30
0.0
 10
-0.9879173228346456
 20
1.753153543307087
 30
0.0
 10
-0.9879173228346456
 20
1.753153543307087
 30
0.0
 10
-0.9879173228346456
 20
1.753153543307087
 30
0.0
 10
-1.058641732283464
 20
1.642842519685039
 30
0.0
 10
-1.058641732283464
 20
1.642842519685039
 30
0.0
 10
-1.058641732283464
 20
1.642842519685039
 30
0.0
 10
-1.058641732283464
 20
1.642842519685039
 30
0.0
 10
-1.12938188976378
 20
1.753153543307087
 30
0.0
 10
-1.12938188976378
 20
1.753153543307087
 30
0.0
 10
-1.12938188976378
 20
1.753153543307087
 30
0.0
 10
-1.12938188976378
 20
1.753153543307087
 30
0.0
 10
-1.190948818897638
 20
1.868834645669291
 30
0.0
 10
-1.190948818897638
 20
1.868834645669291
 30
0.0
 10
-1.190948818897638
 20
1.868834645669291
 30
0.0
 10
-1.190948818897638
 20
1.868834645669291
 30
0.0
 10
-1.24294094488189
 20
1.989102362204724
 30
0.0
 10
-1.24294094488189
 20
1.989102362204724
 30
0.0
 10
-1.24294094488189
 20
1.989102362204724
 30
0.0
 10
-1.24294094488189
 20
1.989102362204724
 30
0.0
 10
-1.285035433070866
 20
2.113208661417323
 30
0.0
 10
-1.285035433070866
 20
2.113208661417323
 30
0.0
 10
-1.285035433070866
 20
2.113208661417323
 30
0.0
 10
-1.285035433070866
 20
2.113208661417323
 30
0.0
 10
-1.316933070866142
 20
2.240291338582677
 30
0.0
 10
-1.316933070866142
 20
2.240291338582677
 30
0.0
 10
-1.316933070866142
 20
2.240291338582677
 30
0.0
 10
-1.316933070866142
 20
2.240291338582677
 30
0.0
 10
-1.338452755905512
 20
2.369570866141732
 30
0.0
 10
-1.338452755905512
 20
2.369570866141732
 30
0.0
 10
-1.338452755905512
 20
2.369570866141732
 30
0.0
 10
-1.338452755905512
 20
2.369570866141732
 30
0.0
 10
-1.349425196850394
 20
2.500169291338583
 30
0.0
 10
-1.349425196850394
 20
2.500169291338583
 30
0.0
 10
-1.349425196850394
 20
2.500169291338583
 30
0.0
 10
-1.349425196850394
 20
2.500169291338583
 30
0.0
 10
-1.349783464566929
 20
2.631255905511811
 30
0.0
 10
-1.349783464566929
 20
2.631255905511811
 30
0.0
 10
-1.349783464566929
 20
2.631255905511811
 30
0.0
 10
-1.349783464566929
 20
2.631255905511811
 30
0.0
 10
-1.33953937007874
 20
2.761846456692914
 30
0.0
 10
-1.33953937007874
 20
2.761846456692914
 30
0.0
 10
-1.33953937007874
 20
2.761846456692914
 30
0.0
 10
-1.33953937007874
 20
2.761846456692914
 30
0.0
 10
-1.318755905511811
 20
2.891228346456693
 30
0.0
 10
-1.318755905511811
 20
2.891228346456693
 30
0.0
 10
-1.318755905511811
 20
2.891228346456693
 30
0.0
 10
-1.318755905511811
 20
2.891228346456693
 30
0.0
 10
-1.287551181102362
 20
3.018507874015748
 30
0.0
 10
-1.287551181102362
 20
3.018507874015748
 30
0.0
 10
-1.287551181102362
 20
3.018507874015748
 30
0.0
 10
-1.287551181102362
 20
3.018507874015748
 30
0.0
 10
-1.246145669291339
 20
3.142842519685039
 30
0.0
 10
-1.246145669291339
 20
3.142842519685039
 30
0.0
 10
-1.246145669291339
 20
3.142842519685039
 30
0.0
 10
-1.246145669291339
 20
3.142842519685039
 30
0.0
 10
-1.114972440944882
 20
3.142842519685039
 30
0.0
 10
-1.114972440944882
 20
3.142842519685039
 30
0.0
 10
-1.114972440944882
 20
3.142842519685039
 30
0.0
 10
-1.114972440944882
 20
3.142842519685039
 30
0.0
 10
-1.114972440944882
 20
2.984066929133858
 30
0.0
 10
-1.114972440944882
 20
2.984066929133858
 30
0.0
 10
-1.114972440944882
 20
2.984066929133858
 30
0.0
 10
-1.114972440944882
 20
2.984066929133858
 30
0.0
 10
-1.00240157480315
 20
2.984145669291339
 30
0.0
 10
-1.00240157480315
 20
2.984145669291339
 30
0.0
 10
-1.00240157480315
 20
2.984145669291339
 30
0.0
 10
-1.00240157480315
 20
2.984145669291339
 30
0.0
 10
-1.00240157480315
 20
3.14292125984252
 30
0.0
 10
-1.00240157480315
 20
3.14292125984252
 30
0.0
 10
-1.00240157480315
 20
3.14292125984252
 30
0.0
 10
-1.00240157480315
 20
3.14292125984252
 30
0.0
 10
-0.8711456692913386
 20
3.142842519685039
 30
0.0
 10
-0.8711456692913386
 20
3.142842519685039
 30
0.0
 10
-0.8711456692913386
 20
3.142842519685039
 30
0.0
 10
-0.8711456692913386
 20
3.142842519685039
 30
0.0
 10
-0.829755905511811
 20
3.018507874015748
 30
0.0
 10
-0.829755905511811
 20
3.018507874015748
 30
0.0
 10
-0.829755905511811
 20
3.018507874015748
 30
0.0
 10
-0.829755905511811
 20
3.018507874015748
 30
0.0
 10
-0.7985472440944882
 20
2.891228346456693
 30
0.0
 10
-0.7985472440944882
 20
2.891228346456693
 30
0.0
 10
-0.7985472440944882
 20
2.891228346456693
 30
0.0
 10
-0.7985472440944882
 20
2.891228346456693
 30
0.0
 10
-0.777751968503937
 20
2.761807086614173
 30
0.0
 10
-0.777751968503937
 20
2.761807086614173
 30
0.0
 10
-0.777751968503937
 20
2.761807086614173
 30
0.0
 10
-0.777751968503937
 20
2.761807086614173
 30
0.0
 10
-0.767507874015748
 20
2.631208661417323
 30
0.0
 10
-0.767507874015748
 20
2.631208661417323
 30
0.0
 10
-0.767507874015748
 20
2.631208661417323
 30
0.0
 10
-0.767507874015748
 20
2.631208661417323
 30
0.0
 10
-0.7678700787401574
 20
2.500267716535433
 30
0.0
 10
-0.7678700787401574
 20
2.500267716535433
 30
0.0
  0
SPLINE
  5
54
330
1F
100
AcDbEntity
  8
Layer 1
 62
     3
370
     9
100
AcDbSpline
210
0.0
220
0.0
230
1.0
 70
    11
 71
     3
 72
    48
 73
    44
 74
     0
 42
0.0000000001
 43
0.0000000001
 40
0.0
 40
0.0
 40
0.0
 40
0.0
 40
0.0833333333333333
 40
0.0833333333333333
 40
0.0833333333333333
 40
0.0833333333333333
 40
0.1666666666666667
 40
0.1666666666666667
 40
0.1666666666666667
 40
0.1666666666666667
 40
0.25
 40
0.25
 40
0.25
 40
0.25
 40
0.3333333333333333
 40
0.3333333333333333
 40
0.3333333333333333
 40
0.3333333333333333
 40
0.4166666666666667
 40
0.4166666666666667
 40
0.4166666666666667
 40
0.4166666666666667
 40
0.5
 40
0.5
 40
0.5
 40
0.5
 40
0.5833333333333334
 40
0.5833333333333334
 40
0.5833333333333334
 40
0.5833333333333334
 40
0.6666666666666666
 40
0.6666666666666666
 40
0.6666666666666666
 40
0.6666666666666666
 40
0.75
 40
0.75
 40
0.75
 40
0.75
 40
0.8333333333333334
 40
0.8333333333333334
 40
0.8333333333333334
 40
0.8333333333333334
 40
1.0
 40
1.0
 40
1.0
 40
1.0
 10
-1.574929133858268
 20
2.710645669291339
 30
0.0
 10
-1.574929133858268
 20
2.710645669291339
 30
0.0
 10
-1.577102362204724
 20
2.719307086614173
 30
0.0
 10
-1.577102362204724
 20
2.719307086614173
 30
0.0
 10
-1.577102362204724
 20
2.719307086614173
 30
0.0
 10
-1.577102362204724
 20
2.719307086614173
 30
0.0
 10
-1.596893700787402
 20
2.777681102362205
 30
0.0
 10
-1.596893700787402
 20
2.777681102362205
 30
0.0
 10
-1.596893700787402
 20
2.777681102362205
 30
0.0
 10
-1.596893700787402
 20
2.777681102362205
 30
0.0
 10
-1.621377952755906
 20
2.834311023622047
 30
0.0
 10
-1.621377952755906
 20
2.834311023622047
 30
0.0
 10
-1.621377952755906
 20
2.834311023622047
 30
0.0
 10
-1.621377952755906
 20
2.834311023622047
 30
0.0
 10
-1.650358267716535
 20
2.888763779527559
 30
0.0
 10
-1.650358267716535
 20
2.888763779527559
 30
0.0
 10
-1.650358267716535
 20
2.888763779527559
 30
0.0
 10
-1.650358267716535
 20
2.888763779527559
 30
0.0
 10
-1.683645669291339
 20
2.940677165354331
 30
0.0
 10
-1.683645669291339
 20
2.940677165354331
 30
0.0
 10
-1.683645669291339
 20
2.940677165354331
 30
0.0
 10
-1.683645669291339
 20
2.940677165354331
 30
0.0
 10
-1.716937007874016
 20
2.888763779527559
 30
0.0
 10
-1.716937007874016
 20
2.888763779527559
 30
0.0
 10
-1.716937007874016
 20
2.888763779527559
 30
0.0
 10
-1.716937007874016
 20
2.888763779527559
 30
0.0
 10
-1.745909448818898
 20
2.834322834645669
 30
0.0
 10
-1.745909448818898
 20
2.834322834645669
 30
0.0
 10
-1.745909448818898
 20
2.834322834645669
 30
0.0
 10
-1.745909448818898
 20
2.834322834645669
 30
0.0
 10
-1.770377952755906
 20
2.777720472440945
 30
0.0
 10
-1.770377952755906
 20
2.777720472440945
 30
0.0
 10
-1.770377952755906
 20
2.777720472440945
 30
0.0
 10
-1.770377952755906
 20
2.777720472440945
 30
0.0
 10
-1.790188976377953
 20
2.719314960629921
 30
0.0
 10
-1.790188976377953
 20
2.719314960629921
 30
0.0
 10
-1.790188976377953
 20
2.719314960629921
 30
0.0
 10
-1.790188976377953
 20
2.719314960629921
 30
0.0
 10
-1.792366141732283
 20
2.710645669291339
 30
0.0
 10
-1.792366141732283
 20
2.710645669291339
 30
0.0
 10
-1.792366141732283
 20
2.710645669291339
 30
0.0
 10
-1.792366141732283
 20
2.710645669291339
 30
0.0
 10
-1.574929133858268
 20
2.710645669291339
 30
0.0
 10
-1.574929133858268
 20
2.710645669291339
 30
0.0
  0
SPLINE
  5
55
330
1F
100
AcDbEntity
  8
Layer 1
 62
     5
370
     9
100
AcDbSpline
210
0.0
220
0.0
230
1.0
 70
    11
 71
     3
 72
   120
 73
   116
 74
     0
 42
0.0000000001
 43
0.0000000001
 40
0.0
 40
0.0
 40
0.0
 40
0.0
 40
0.0333333333333333
 40
0.0333333333333333
 40
0.0333333333333333
 40
0.0333333333333333
 40
0.0666666666666667
 40
0.0666666666666667
 40
0.0666666666666667
 40
0.0666666666666667
 40
0.1
 40
0.1
 40
0.1
 40
0.1
 40
0.1333333333333333
 40
0.1333333333333333
 40
0.1333333333333333
 40
0.1333333333333333
 40
0.1666666666666667
 40
0.1666666666666667
 40
0.1666666666666667
 40
0.1666666666666667
 40
0.2
 40
0.2
 40
0.2
 40
0.2
 40
0.2333333333333333
 40
0.2333333333333333
 40
0.2333333333333333
 40
0.2333333333333333
 40
0.2666666666666667
 40
0.2666666666666667
 40
0.2666666666666667
 40
0.2666666666666667
 40
0.3
 40
0.3
 40
0.3
 40
0.3
 40
0.3333333333333333
 40
0.3333333333333333
 40
0.3333333333333333
 40
0.3333333333333333
 40
0.3666666666666666
 40
0.3666666666666666
 40
0.3666666666666666
 40
0.3666666666666666
 40
0.4
 40
0.4
 40
0.4
 40
0.4
 40
0.4333333333333333
 40
0.4333333333333333
 40
0.4333333333333333
 40
0.4333333333333333
 40
0.4666666666666667
 40
0.4666666666666667
 40
0.4666666666666667
 40
0.4666666666666667
 40
0.5
 40
0.5
 40
0.5
 40
0.5
 40
0.5333333333333333
 40
0.5333333333333333
 40
0.5333333333333333
 40
0.5333333333333333
 40
0.5666666666666667
 40
0.5666666666666667
 40
0.5666666666666667
 40
0.5666666666666667
 40
0.6
 40
0.6
 40
0.6
 40
0.6
 40
0.6333333333333333
 40
0.6333333333333333
 40
0.6333333333333333
 40
0.6333333333333333
 40
0.6666666666666666
 40
0.6666666666666666
 40
0.6666666666666666
 40
0.6666666666666666
 40
0.7
 40
0.7
 40
0.7
 40
0.7
 40
0.7333333333333333
 40
0.7333333333333333
 40
0.7333333333333333
 40
0.7333333333333333
 40
0.7666666666666667
 40
0.7666666666666667
 40
0.7666666666666667
 40
0.7666666666666667
 40
0.8
 40
0.8
 40
0.8
 40
0.8
 40
0.8333333333333334
 40
0.8333333333333334
 40
0.8333333333333334
 40
0.8333333333333334
 40
0.8666666666666667
 40
0.8666666666666667
 40
0.8666666666666667
 40
0.8666666666666667
 40
0.9
 40
0.9
 40
0.9
 40
0.9
 40
0.9333333333333333
 40
0.9333333333333333
 40
0.9333333333333333
 40
0.9333333333333333
 40
1.0
 40
1.0
 40
1.0
 40
1.0
 10
-1.392870078740158
 20
2.342787401574803
 30
0.0
 10
-1.392870078740158
 20
2.342787401574803
 30
0.0
 10
-1.403846456692913
 20
2.473484251968504
 30
0.0
 10
-1.403846456692913
 20
2.473484251968504
 30
0.0
 10
-1.403846456692913
 20
2.473484251968504
 30
0.0
 10
-1.403846456692913
 20
2.473484251968504
 30
0.0
 10
-1.425366141732283
 20
2.602763779527559
 30
0.0
 10
-1.425366141732283
 20
2.602763779527559
 30
0.0
 10
-1.425366141732283
 20
2.602763779527559
 30
0.0
 10
-1.425366141732283
 20
2.602763779527559
 30
0.0
 10
-1.457259842519685
 20
2.729834645669291
 30
0.0
 10
-1.457259842519685
 20
2.729834645669291
 30
0.0
 10
-1.457259842519685
 20
2.729834645669291
 30
0.0
 10
-1.457259842519685
 20
2.729834645669291
 30
0.0
 10
-1.499314960629921
 20
2.853870078740158
 30
0.0
 10
-1.499314960629921
 20
2.853870078740158
 30
0.0
 10
-1.499314960629921
 20
2.853870078740158
 30
0.0
 10
-1.499314960629921
 20
2.853870078740158
 30
0.0
 10
-1.551338582677165
 20
2.974196850393701
 30
0.0
 10
-1.551338582677165
 20
2.974196850393701
 30
0.0
 10
-1.551338582677165
 20
2.974196850393701
 30
0.0
 10
-1.551338582677165
 20
2.974196850393701
 30
0.0
 10
-1.612917322834646
 20
3.08990157480315
 30
0.0
 10
-1.612917322834646
 20
3.08990157480315
 30
0.0
 10
-1.612917322834646
 20
3.08990157480315
 30
0.0
 10
-1.612917322834646
 20
3.08990157480315
 30
0.0
 10
-1.683641732283464
 20
3.200212598425197
 30
0.0
 10
-1.683641732283464
 20
3.200212598425197
 30
0.0
 10
-1.683641732283464
 20
3.200212598425197
 30
0.0
 10
-1.683641732283464
 20
3.200212598425197
 30
0.0
 10
-1.75438188976378
 20
3.08990157480315
 30
0.0
 10
-1.75438188976378
 20
3.08990157480315
 30
0.0
 10
-1.75438188976378
 20
3.08990157480315
 30
0.0
 10
-1.75438188976378
 20
3.08990157480315
 30
0.0
 10
-1.815948818897638
 20
2.974220472440945
 30
0.0
 10
-1.815948818897638
 20
2.974220472440945
 30
0.0
 10
-1.815948818897638
 20
2.974220472440945
 30
0.0
 10
-1.815948818897638
 20
2.974220472440945
 30
0.0
 10
-1.86794094488189
 20
2.853952755905512
 30
0.0
 10
-1.86794094488189
 20
2.853952755905512
 30
0.0
 10
-1.86794094488189
 20
2.853952755905512
 30
0.0
 10
-1.86794094488189
 20
2.853952755905512
 30
0.0
 10
-1.910035433070866
 20
2.729846456692913
 30
0.0
 10
-1.910035433070866
 20
2.729846456692913
 30
0.0
 10
-1.910035433070866
 20
2.729846456692913
 30
0.0
 10
-1.910035433070866
 20
2.729846456692913
 30
0.0
 10
-1.941933070866142
 20
2.602763779527559
 30
0.0
 10
-1.941933070866142
 20
2.602763779527559
 30
0.0
 10
-1.941933070866142
 20
2.602763779527559
 30
0.0
 10
-1.941933070866142
 20
2.602763779527559
 30
0.0
 10
-1.963452755905512
 20
2.473484251968504
 30
0.0
 10
-1.963452755905512
 20
2.473484251968504
 30
0.0
 10
-1.963452755905512
 20
2.473484251968504
 30
0.0
 10
-1.963452755905512
 20
2.473484251968504
 30
0.0
 10
-1.974425196850394
 20
2.342885826771654
 30
0.0
 10
-1.974425196850394
 20
2.342885826771654
 30
0.0
 10
-1.974425196850394
 20
2.342885826771654
 30
0.0
 10
-1.974425196850394
 20
2.342885826771654
 30
0.0
 10
-1.974783464566929
 20
2.211799212598425
 30
0.0
 10
-1.974783464566929
 20
2.211799212598425
 30
0.0
 10
-1.974783464566929
 20
2.211799212598425
 30
0.0
 10
-1.974783464566929
 20
2.211799212598425
 30
0.0
 10
-1.96453937007874
 20
2.081208661417323
 30
0.0
 10
-1.96453937007874
 20
2.081208661417323
 30
0.0
 10
-1.96453937007874
 20
2.081208661417323
 30
0.0
 10
-1.96453937007874
 20
2.081208661417323
 30
0.0
 10
-1.943755905511811
 20
1.951826771653543
 30
0.0
 10
-1.943755905511811
 20
1.951826771653543
 30
0.0
 10
-1.943755905511811
 20
1.951826771653543
 30
0.0
 10
-1.943755905511811
 20
1.951826771653543
 30
0.0
 10
-1.912551181102362
 20
1.824547244094488
 30
0.0
 10
-1.912551181102362
 20
1.824547244094488
 30
0.0
 10
-1.912551181102362
 20
1.824547244094488
 30
0.0
 10
-1.912551181102362
 20
1.824547244094488
 30
0.0
 10
-1.871145669291339
 20
1.700212598425197
 30
0.0
 10
-1.871145669291339
 20
1.700212598425197
 30
0.0
 10
-1.871145669291339
 20
1.700212598425197
 30
0.0
 10
-1.871145669291339
 20
1.700212598425197
 30
0.0
 10
-1.739972440944882
 20
1.700212598425197
 30
0.0
 10
-1.739972440944882
 20
1.700212598425197
 30
0.0
 10
-1.739972440944882
 20
1.700212598425197
 30
0.0
 10
-1.739972440944882
 20
1.700212598425197
 30
0.0
 10
-1.739972440944882
 20
1.858988188976378
 30
0.0
 10
-1.739972440944882
 20
1.858988188976378
 30
0.0
 10
-1.739972440944882
 20
1.858988188976378
 30
0.0
 10
-1.739972440944882
 20
1.858988188976378
 30
0.0
 10
-1.62740157480315
 20
1.858909448818898
 30
0.0
 10
-1.62740157480315
 20
1.858909448818898
 30
0.0
 10
-1.62740157480315
 20
1.858909448818898
 30
0.0
 10
-1.62740157480315
 20
1.858909448818898
 30
0.0
 10
-1.62740157480315
 20
1.700133858267717
 30
0.0
 10
-1.62740157480315
 20
1.700133858267717
 30
0.0
 10
-1.62740157480315
 20
1.700133858267717
 30
0.0
 10
-1.62740157480315
 20
1.700133858267717
 30
0.0
 10
-1.496145669291339
 20
1.700212598425197
 30
0.0
 10
-1.496145669291339
 20
1.700212598425197
 30
0.0
 10
-1.496145669291339
 20
1.700212598425197
 30
0.0
 10
-1.496145669291339
 20
1.700212598425197
 30
0.0
 10
-1.454755905511811
 20
1.824547244094488
 30
0.0
 10
-1.454755905511811
 20
1.824547244094488
 30
0.0
 10
-1.454755905511811
 20
1.824547244094488
 30
0.0
 10
-1.454755905511811
 20
1.824547244094488
 30
0.0
 10
-1.423547244094488
 20
1.951826771653543
 30
0.0
 10
-1.423547244094488
 20
1.951826771653543
 30
0.0
 10
-1.423547244094488
 20
1.951826771653543
 30
0.0
 10
-1.423547244094488
 20
1.951826771653543
 30
0.0
 10
-1.402751968503937
 20
2.081248031496063
 30
0.0
 10
-1.402751968503937
 20
2.081248031496063
 30
0.0
 10
-1.402751968503937
 20
2.081248031496063
 30
0.0
 10
-1.402751968503937
 20
2.081248031496063
 30
0.0
 10
-1.392507874015748
 20
2.211846456692913
 30
0.0
 10
-1.392507874015748
 20
2.211846456692913
 30
0.0
 10
-1.392507874015748
 20
2.211846456692913
 30
0.0
 10
-1.392507874015748
 20
2.211846456692913
 30
0.0
 10
-1.392870078740158
 20
2.342787401574803
 30
0.0
 10
-1.392870078740158
 20
2.342787401574803
 30
0.0
  0
SPLINE
  5
56
330
1F
100
AcDbEntity
  8
Layer 1
 62
     3
370
     9
100
AcDbSpline
210
0.0
220
0.0
230
1.0
 70
    11
 71
     3
 72
    48
 73
    44
 74
     0
 42
0.0000000001
 43
0.0000000001
 40
0.0
 40
0.0
 40
0.0
 40
0.0
 40
0.0833333333333333
 40
0.0833333333333333
 40
0.0833333333333333
 40
0.0833333333333333
 40
0.1666666666666667
 40
0.1666666666666667
 40
0.1666666666666667
 40
0.1666666666666667
 40
0.25
 40
0.25
 40
0.25
 40
0.25
 40
0.3333333333333333
 40
0.3333333333333333
 40
0.3333333333333333
 40
0.3333333333333333
 40
0.4166666666666667
 40
0.4166666666666667
 40
0.4166666666666667
 40
0.4166666666666667
 40
0.5
 40
0.5
 40
0.5
 40
0.5
 40
0.5833333333333334
 40
0.5833333333333334
 40
0.5833333333333334
 40
0.5833333333333334
 40
0.6666666666666666
 40
0.6666666666666666
 40
0.6666666666666666
 40
0.6666666666666666
 40
0.75
 40
0.75
 40
0.75
 40
0.75
 40
0.8333333333333334
 40
0.8333333333333334
 40
0.8333333333333334
 40
0.8333333333333334
 40
1.0
 40
1.0
 40
1.0
 40
1.0
 10
-2.225976377952756
 20
2.189700787401575
 30
0.0
 10
-2.225976377952756
 20
2.189700787401575
 30
0.0
 10
-2.228149606299213
 20
2.18103937007874
 30
0.0
 10
-2.228149606299213
 20
2.18103937007874
 30
0.0
 10
-2.228149606299213
 20
2.18103937007874
 30
0.0
 10
-2.228149606299213
 20
2.18103937007874
 30
0.0
 10
-2.24794094488189
 20
2.122665354330709
 30
0.0
 10
-2.24794094488189
 20
2.122665354330709
 30
0.0
 10
-2.24794094488189
 20
2.122665354330709
 30
0.0
 10
-2.24794094488189
 20
2.122665354330709
 30
0.0
 10
-2.272425196850394
 20
2.066035433070866
 30
0.0
 10
-2.272425196850394
 20
2.066035433070866
 30
0.0
 10
-2.272425196850394
 20
2.066035433070866
 30
0.0
 10
-2.272425196850394
 20
2.066035433070866
 30
0.0
 10
-2.301405511811024
 20
2.011582677165354
 30
0.0
 10
-2.301405511811024
 20
2.011582677165354
 30
0.0
 10
-2.301405511811024
 20
2.011582677165354
 30
0.0
 10
-2.301405511811024
 20
2.011582677165354
 30
0.0
 10
-2.334692913385827
 20
1.959669291338583
 30
0.0
 10
-2.334692913385827
 20
1.959669291338583
 30
0.0
 10
-2.334692913385827
 20
1.959669291338583
 30
0.0
 10
-2.334692913385827
 20
1.959669291338583
 30
0.0
 10
-2.367984251968504
 20
2.011582677165354
 30
0.0
 10
-2.367984251968504
 20
2.011582677165354
 30
0.0
 10
-2.367984251968504
 20
2.011582677165354
 30
0.0
 10
-2.367984251968504
 20
2.011582677165354
 30
0.0
 10
-2.396956692913386
 20
2.066023622047244
 30
0.0
 10
-2.396956692913386
 20
2.066023622047244
 30
0.0
 10
-2.396956692913386
 20
2.066023622047244
 30
0.0
 10
-2.396956692913386
 20
2.066023622047244
 30
0.0
 10
-2.421425196850393
 20
2.122625984251969
 30
0.0
 10
-2.421425196850393
 20
2.122625984251969
 30
0.0
 10
-2.421425196850393
 20
2.122625984251969
 30
0.0
 10
-2.421425196850393
 20
2.122625984251969
 30
0.0
 10
-2.441236220472441
 20
2.181031496062992
 30
0.0
 10
-2.441236220472441
 20
2.181031496062992
 30
0.0
 10
-2.441236220472441
 20
2.181031496062992
 30
0.0
 10
-2.441236220472441
 20
2.181031496062992
 30
0.0
 10
-2.443413385826771
 20
2.189700787401575
 30
0.0
 10
-2.443413385826771
 20
2.189700787401575
 30
0.0
 10
-2.443413385826771
 20
2.189700787401575
 30
0.0
 10
-2.443413385826771
 20
2.189700787401575
 30
0.0
 10
-2.225976377952756
 20
2.189700787401575
 30
0.0
 10
-2.225976377952756
 20
2.189700787401575
 30
0.0
  0
SPLINE
  5
57
330
1F
100
AcDbEntity
  8
Layer 1
 62
     5
370
     9
100
AcDbSpline
210
0.0
220
0.0
230
1.0
 70
    11
 71
     3
 72
   120
 73
   116
 74
     0
 42
0.0000000001
 43
0.0000000001
 40
0.0
 40
0.0
 40
0.0
 40
0.0
 40
0.0333333333333333
 40
0.0333333333333333
 40
0.0333333333333333
 40
0.0333333333333333
 40
0.0666666666666667
 40
0.0666666666666667
 40
0.0666666666666667
 40
0.0666666666666667
 40
0.1
 40
0.1
 40
0.1
 40
0.1
 40
0.1333333333333333
 40
0.1333333333333333
 40
0.1333333333333333
 40
0.1333333333333333
 40
0.1666666666666667
 40
0.1666666666666667
 40
0.1666666666666667
 40
0.1666666666666667
 40
0.2
 40
0.2
 40
0.2
 40
0.2
 40
0.2333333333333333
 40
0.2333333333333333
 40
0.2333333333333333
 40
0.2333333333333333
 40
0.2666666666666667
 40
0.2666666666666667
 40
0.2666666666666667
 40
0.2666666666666667
 40
0.3
 40
0.3
 40
0.3
 40
0.3
 40
0.3333333333333333
 40
0.3333333333333333
 40
0.3333333333333333
 40
0.3333333333333333
 40
0.3666666666666666
 40
0.3666666666666666
 40
0.3666666666666666
 40
0.3666666666666666
 40
0.4
 40
0.4
 40
0.4
 40
0.4
 40
0.4333333333333333
 40
0.4333333333333333
 40
0.4333333333333333
 40
0.4333333333333333
 40
0.4666666666666667
 40
0.4666666666666667
 40
0.4666666666666667
 40
0.4666666666666667
 40
0.5
 40
0.5
 40
0.5
 40
0.5
 40
0.5333333333333333
 40
0.5333333333333333
 40
0.5333333333333333
 40
0.5333333333333333
 40
0.5666666666666667
 40
0.5666666666666667
 40
0.5666666666666667
 40
0.5666666666666667
 40
0.6
 40
0.6
 40
0.6
 40
0.6
 40
0.6333333333333333
 40
0.6333333333333333
 40
0.6333333333333333
 40
0.6333333333333333
 40
0.6666666666666666
 40
0.6666666666666666
 40
0.6666666666666666
 40
0.6666666666666666
 40
0.7
 40
0.7
 40
0.7
 40
0.7
 40
0.7333333333333333
 40
0.7333333333333333
 40
0.7333333333333333
 40
0.7333333333333333
 40
0.7666666666666667
 40
0.7666666666666667
 40
0.7666666666666667
 40
0.7666666666666667
 40
0.8
 40
0.8
 40
0.8
 40
0.8
 40
0.8333333333333334
 40
0.8333333333333334
 40
0.8333333333333334
 40
0.8333333333333334
 40
0.8666666666666667
 40
0.8666666666666667
 40
0.8666666666666667
 40
0.8666666666666667
 40
0.9
 40
0.9
 40
0.9
 40
0.9
 40
0.9333333333333333
 40
0.9333333333333333
 40
0.9333333333333333
 40
0.9333333333333333
 40
1.0
 40
1.0
 40
1.0
 40
1.0
 10
-2.043917322834646
 20
2.55755905511811
 30
0.0
 10
-2.043917322834646
 20
2.55755905511811
 30
0.0
 10
-2.054893700787402
 20
2.426862204724409
 30
0.0
 10
-2.054893700787402
 20
2.426862204724409
 30
0.0
 10
-2.054893700787402
 20
2.426862204724409
 30
0.0
 10
-2.054893700787402
 20
2.426862204724409
 30
0.0
 10
-2.076413385826771
 20
2.297582677165354
 30
0.0
 10
-2.076413385826771
 20
2.297582677165354
 30
0.0
 10
-2.076413385826771
 20
2.297582677165354
 30
0.0
 10
-2.076413385826771
 20
2.297582677165354
 30
0.0
 10
-2.108307086614173
 20
2.170511811023622
 30
0.0
 10
-2.108307086614173
 20
2.170511811023622
 30
0.0
 10
-2.108307086614173
 20
2.170511811023622
 30
0.0
 10
-2.108307086614173
 20
2.170511811023622
 30
0.0
 10
-2.150362204724409
 20
2.046476377952756
 30
0.0
 10
-2.150362204724409
 20
2.046476377952756
 30
0.0
 10
-2.150362204724409
 20
2.046476377952756
 30
0.0
 10
-2.150362204724409
 20
2.046476377952756
 30
0.0
 10
-2.202385826771653
 20
1.926149606299213
 30
0.0
 10
-2.202385826771653
 20
1.926149606299213
 30
0.0
 10
-2.202385826771653
 20
1.926149606299213
 30
0.0
 10
-2.202385826771653
 20
1.926149606299213
 30
0.0
 10
-2.263964566929134
 20
1.810444881889764
 30
0.0
 10
-2.263964566929134
 20
1.810444881889764
 30
0.0
 10
-2.263964566929134
 20
1.810444881889764
 30
0.0
 10
-2.263964566929134
 20
1.810444881889764
 30
0.0
 10
-2.334688976377953
 20
1.700133858267717
 30
0.0
 10
-2.334688976377953
 20
1.700133858267717
 30
0.0
 10
-2.334688976377953
 20
1.700133858267717
 30
0.0
 10
-2.334688976377953
 20
1.700133858267717
 30
0.0
 10
-2.405429133858268
 20
1.810444881889764
 30
0.0
 10
-2.405429133858268
 20
1.810444881889764
 30
0.0
 10
-2.405429133858268
 20
1.810444881889764
 30
0.0
 10
-2.405429133858268
 20
1.810444881889764
 30
0.0
 10
-2.466996062992126
 20
1.926125984251968
 30
0.0
 10
-2.466996062992126
 20
1.926125984251968
 30
0.0
 10
-2.466996062992126
 20
1.926125984251968
 30
0.0
 10
-2.466996062992126
 20
1.926125984251968
 30
0.0
 10
-2.518988188976378
 20
2.046393700787402
 30
0.0
 10
-2.518988188976378
 20
2.046393700787402
 30
0.0
 10
-2.518988188976378
 20
2.046393700787402
 30
0.0
 10
-2.518988188976378
 20
2.046393700787402
 30
0.0
 10
-2.561082677165354
 20
2.1705
 30
0.0
 10
-2.561082677165354
 20
2.1705
 30
0.0
 10
-2.561082677165354
 20
2.1705
 30
0.0
 10
-2.561082677165354
 20
2.1705
 30
0.0
 10
-2.59298031496063
 20
2.297582677165354
 30
0.0
 10
-2.59298031496063
 20
2.297582677165354
 30
0.0
 10
-2.59298031496063
 20
2.297582677165354
 30
0.0
 10
-2.59298031496063
 20
2.297582677165354
 30
0.0
 10
-2.6145
 20
2.426862204724409
 30
0.0
 10
-2.6145
 20
2.426862204724409
 30
0.0
 10
-2.6145
 20
2.426862204724409
 30
0.0
 10
-2.6145
 20
2.426862204724409
 30
0.0
 10
-2.625472440944882
 20
2.55746062992126
 30
0.0
 10
-2.625472440944882
 20
2.55746062992126
 30
0.0
 10
-2.625472440944882
 20
2.55746062992126
 30
0.0
 10
-2.625472440944882
 20
2.55746062992126
 30
0.0
 10
-2.625830708661417
 20
2.688547244094488
 30
0.0
 10
-2.625830708661417
 20
2.688547244094488
 30
0.0
 10
-2.625830708661417
 20
2.688547244094488
 30
0.0
 10
-2.625830708661417
 20
2.688547244094488
 30
0.0
 10
-2.615586614173228
 20
2.819137795275591
 30
0.0
 10
-2.615586614173228
 20
2.819137795275591
 30
0.0
 10
-2.615586614173228
 20
2.819137795275591
 30
0.0
 10
-2.615586614173228
 20
2.819137795275591
 30
0.0
 10
-2.594803149606299
 20
2.94851968503937
 30
0.0
 10
-2.594803149606299
 20
2.94851968503937
 30
0.0
 10
-2.594803149606299
 20
2.94851968503937
 30
0.0
 10
-2.594803149606299
 20
2.94851968503937
 30
0.0
 10
-2.56359842519685
 20
3.075799212598425
 30
0.0
 10
-2.56359842519685
 20
3.075799212598425
 30
0.0
 10
-2.56359842519685
 20
3.075799212598425
 30
0.0
 10
-2.56359842519685
 20
3.075799212598425
 30
0.0
 10
-2.522192913385827
 20
3.200133858267717
 30
0.0
 10
-2.522192913385827
 20
3.200133858267717
 30
0.0
 10
-2.522192913385827
 20
3.200133858267717
 30
0.0
 10
-2.522192913385827
 20
3.200133858267717
 30
0.0
 10
-2.39101968503937
 20
3.200133858267717
 30
0.0
 10
-2.39101968503937
 20
3.200133858267717
 30
0.0
 10
-2.39101968503937
 20
3.200133858267717
 30
0.0
 10
-2.39101968503937
 20
3.200133858267717
 30
0.0
 10
-2.39101968503937
 20
3.041358267716535
 30
0.0
 10
-2.39101968503937
 20
3.041358267716535
 30
0.0
 10
-2.39101968503937
 20
3.041358267716535
 30
0.0
 10
-2.39101968503937
 20
3.041358267716535
 30
0.0
 10
-2.278448818897638
 20
3.041437007874016
 30
0.0
 10
-2.278448818897638
 20
3.041437007874016
 30
0.0
 10
-2.278448818897638
 20
3.041437007874016
 30
0.0
 10
-2.278448818897638
 20
3.041437007874016
 30
0.0
 10
-2.278448818897638
 20
3.200212598425197
 30
0.0
 10
-2.278448818897638
 20
3.200212598425197
 30
0.0
 10
-2.278448818897638
 20
3.200212598425197
 30
0.0
 10
-2.278448818897638
 20
3.200212598425197
 30
0.0
 10
-2.147192913385827
 20
3.200133858267717
 30
0.0
 10
-2.147192913385827
 20
3.200133858267717
 30
0.0
 10
-2.147192913385827
 20
3.200133858267717
 30
0.0
 10
-2.147192913385827
 20
3.200133858267717
 30
0.0
 10
-2.105803149606299
 20
3.075799212598425
 30
0.0
 10
-2.105803149606299
 20
3.075799212598425
 30
0.0
 10
-2.105803149606299
 20
3.075799212598425
 30
0.0
 10
-2.105803149606299
 20
3.075799212598425
 30
0.0
 10
-2.074594488188976
 20
2.94851968503937
 30
0.0
 10
-2.074594488188976
 20
2.94851968503937
 30
0.0
 10
-2.074594488188976
 20
2.94851968503937
 30
0.0
 10
-2.074594488188976
 20
2.94851968503937
 30
0.0
 10
-2.053799212598425
 20
2.81909842519685
 30
0.0
 10
-2.053799212598425
 20
2.81909842519685
 30
0.0
 10
-2.053799212598425
 20
2.81909842519685
 30
0.0
 10
-2.053799212598425
 20
2.81909842519685
 30
0.0
 10
-2.043555118110236
 20
2.6885
 30
0.0
 10
-2.043555118110236
 20
2.6885
 30
0.0
 10
-2.043555118110236
 20
2.6885
 30
0.0
 10
-2.043555118110236
 20
2.6885
 30
0.0
 10
-2.043917322834646
 20
2.55755905511811
 30
0.0
 10
-2.043917322834646
 20
2.55755905511811
 30
0.0
  0
SPLINE
  5
58
330
1F
100
AcDbEntity
  8
Layer 1
 62
     3
370
     9
100
AcDbSpline
210
0.0
220
0.0
230
1.0
 70
    11
 71
     3
 72
    48
 73
    44
 74
     0
 42
0.0000000001
 43
0.0000000001
 40
0.0
 40
0.0
 40
0.0
 40
0.0
 40
0.0833333333333333
 40
0.0833333333333333
 40
0.0833333333333333
 40
0.0833333333333333
 40
0.1666666666666667
 40
0.1666666666666667
 40
0.1666666666666667
 40
0.1666666666666667
 40
0.25
 40
0.25
 40
0.25
 40
0.25
 40
0.3333333333333333
 40
0.3333333333333333
 40
0.3333333333333333
 40
0.3333333333333333
 40
0.4166666666666667
 40
0.4166666666666667
 40
0.4166666666666667
 40
0.4166666666666667
 40
0.5
 40
0.5
 40
0.5
 40
0.5
 40
0.5833333333333334
 40
0.5833333333333334
 40
0.5833333333333334
 40
0.5833333333333334
 40
0.6666666666666666
 40
0.6666666666666666
 40
0.6666666666666666
 40
0.6666666666666666
 40
0.75
 40
0.75
 40
0.75
 40
0.75
 40
0.8333333333333334
 40
0.8333333333333334
 40
0.8333333333333334
 40
0.8333333333333334
 40
1.0
 40
1.0
 40
1.0
 40
1.0
 10
-2.845767716535433
 20
2.778354330708662
 30
0.0
 10
-2.845767716535433
 20
2.778354330708662
 30
0.0
 10
-2.84794094488189
 20
2.787015748031496
 30
0.0
 10
-2.84794094488189
 20
2.787015748031496
 30
0.0
 10
-2.84794094488189
 20
2.787015748031496
 30
0.0
 10
-2.84794094488189
 20
2.787015748031496
 30
0.0
 10
-2.867732283464567
 20
2.845389763779528
 30
0.0
 10
-2.867732283464567
 20
2.845389763779528
 30
0.0
 10
-2.867732283464567
 20
2.845389763779528
 30
0.0
 10
-2.867732283464567
 20
2.845389763779528
 30
0.0
 10
-2.892216535433071
 20
2.90201968503937
 30
0.0
 10
-2.892216535433071
 20
2.90201968503937
 30
0.0
 10
-2.892216535433071
 20
2.90201968503937
 30
0.0
 10
-2.892216535433071
 20
2.90201968503937
 30
0.0
 10
-2.921196850393701
 20
2.956472440944882
 30
0.0
 10
-2.921196850393701
 20
2.956472440944882
 30
0.0
 10
-2.921196850393701
 20
2.956472440944882
 30
0.0
 10
-2.921196850393701
 20
2.956472440944882
 30
0.0
 10
-2.954484251968504
 20
3.008385826771653
 30
0.0
 10
-2.954484251968504
 20
3.008385826771653
 30
0.0
 10
-2.954484251968504
 20
3.008385826771653
 30
0.0
 10
-2.954484251968504
 20
3.008385826771653
 30
0.0
 10
-2.987775590551181
 20
2.956472440944882
 30
0.0
 10
-2.987775590551181
 20
2.956472440944882
 30
0.0
 10
-2.987775590551181
 20
2.956472440944882
 30
0.0
 10
-2.987775590551181
 20
2.956472440944882
 30
0.0
 10
-3.016748031496063
 20
2.902031496062992
 30
0.0
 10
-3.016748031496063
 20
2.902031496062992
 30
0.0
 10
-3.016748031496063
 20
2.902031496062992
 30
0.0
 10
-3.016748031496063
 20
2.902031496062992
 30
0.0
 10
-3.041216535433071
 20
2.845429133858268
 30
0.0
 10
-3.041216535433071
 20
2.845429133858268
 30
0.0
 10
-3.041216535433071
 20
2.845429133858268
 30
0.0
 10
-3.041216535433071
 20
2.845429133858268
 30
0.0
 10
-3.061027559055118
 20
2.787023622047244
 30
0.0
 10
-3.061027559055118
 20
2.787023622047244
 30
0.0
 10
-3.061027559055118
 20
2.787023622047244
 30
0.0
 10
-3.061027559055118
 20
2.787023622047244
 30
0.0
 10
-3.063204724409449
 20
2.778354330708662
 30
0.0
 10
-3.063204724409449
 20
2.778354330708662
 30
0.0
 10
-3.063204724409449
 20
2.778354330708662
 30
0.0
 10
-3.063204724409449
 20
2.778354330708662
 30
0.0
 10
-2.845767716535433
 20
2.778354330708662
 30
0.0
 10
-2.845767716535433
 20
2.778354330708662
 30
0.0
  0
SPLINE
  5
59
330
1F
100
AcDbEntity
  8
Layer 1
 62
     5
370
     9
100
AcDbSpline
210
0.0
220
0.0
230
1.0
 70
    11
 71
     3
 72
   120
 73
   116
 74
     0
 42
0.0000000001
 43
0.0000000001
 40
0.0
 40
0.0
 40
0.0
 40
0.0
 40
0.0333333333333333
 40
0.0333333333333333
 40
0.0333333333333333
 40
0.0333333333333333
 40
0.0666666666666667
 40
0.0666666666666667
 40
0.0666666666666667
 40
0.0666666666666667
 40
0.1
 40
0.1
 40
0.1
 40
0.1
 40
0.1333333333333333
 40
0.1333333333333333
 40
0.1333333333333333
 40
0.1333333333333333
 40
0.1666666666666667
 40
0.1666666666666667
 40
0.1666666666666667
 40
0.1666666666666667
 40
0.2
 40
0.2
 40
0.2
 40
0.2
 40
0.2333333333333333
 40
0.2333333333333333
 40
0.2333333333333333
 40
0.2333333333333333
 40
0.2666666666666667
 40
0.2666666666666667
 40
0.2666666666666667
 40
0.2666666666666667
 40
0.3
 40
0.3
 40
0.3
 40
0.3
 40
0.3333333333333333
 40
0.3333333333333333
 40
0.3333333333333333
 40
0.3333333333333333
 40
0.3666666666666666
 40
0.3666666666666666
 40
0.3666666666666666
 40
0.3666666666666666
 40
0.4
 40
0.4
 40
0.4
 40
0.4
 40
0.4333333333333333
 40
0.4333333333333333
 40
0.4333333333333333
 40
0.4333333333333333
 40
0.4666666666666667
 40
0.4666666666666667
 40
0.4666666666666667
 40
0.4666666666666667
 40
0.5
 40
0.5
 40
0.5
 40
0.5
 40
0.5333333333333333
 40
0.5333333333333333
 40
0.5333333333333333
 40
0.5333333333333333
 40
0.5666666666666667
 40
0.5666666666666667
 40
0.5666666666666667
 40
0.5666666666666667
 40
0.6
 40
0.6
 40
0.6
 40
0.6
 40
0.6333333333333333
 40
0.6333333333333333
 40
0.6333333333333333
 40
0.6333333333333333
 40
0.6666666666666666
 40
0.6666666666666666
 40
0.6666666666666666
 40
0.6666666666666666
 40
0.7
 40
0.7
 40
0.7
 40
0.7
 40
0.7333333333333333
 40
0.7333333333333333
 40
0.7333333333333333
 40
0.7333333333333333
 40
0.7666666666666667
 40
0.7666666666666667
 40
0.7666666666666667
 40
0.7666666666666667
 40
0.8
 40
0.8
 40
0.8
 40
0.8
 40
0.8333333333333334
 40
0.8333333333333334
 40
0.8333333333333334
 40
0.8333333333333334
 40
0.8666666666666667
 40
0.8666666666666667
 40
0.8666666666666667
 40
0.8666666666666667
 40
0.9
 40
0.9
 40
0.9
 40
0.9
 40
0.9333333333333333
 40
0.9333333333333333
 40
0.9333333333333333
 40
0.9333333333333333
 40
1.0
 40
1.0
 40
1.0
 40
1.0
 10
-2.663708661417323
 20
2.410496062992126
 30
0.0
 10
-2.663708661417323
 20
2.410496062992126
 30
0.0
 10
-2.674685039370079
 20
2.541192913385827
 30
0.0
 10
-2.674685039370079
 20
2.541192913385827
 30
0.0
 10
-2.674685039370079
 20
2.541192913385827
 30
0.0
 10
-2.674685039370079
 20
2.541192913385827
 30
0.0
 10
-2.696204724409449
 20
2.670472440944882
 30
0.0
 10
-2.696204724409449
 20
2.670472440944882
 30
0.0
 10
-2.696204724409449
 20
2.670472440944882
 30
0.0
 10
-2.696204724409449
 20
2.670472440944882
 30
0.0
 10
-2.72809842519685
 20
2.797543307086614
 30
0.0
 10
-2.72809842519685
 20
2.797543307086614
 30
0.0
 10
-2.72809842519685
 20
2.797543307086614
 30
0.0
 10
-2.72809842519685
 20
2.797543307086614
 30
0.0
 10
-2.770153543307087
 20
2.92157874015748
 30
0.0
 10
-2.770153543307087
 20
2.92157874015748
 30
0.0
 10
-2.770153543307087
 20
2.92157874015748
 30
0.0
 10
-2.770153543307087
 20
2.92157874015748
 30
0.0
 10
-2.822177165354331
 20
3.041905511811024
 30
0.0
 10
-2.822177165354331
 20
3.041905511811024
 30
0.0
 10
-2.822177165354331
 20
3.041905511811024
 30
0.0
 10
-2.822177165354331
 20
3.041905511811024
 30
0.0
 10
-2.883755905511811
 20
3.157610236220473
 30
0.0
 10
-2.883755905511811
 20
3.157610236220473
 30
0.0
 10
-2.883755905511811
 20
3.157610236220473
 30
0.0
 10
-2.883755905511811
 20
3.157610236220473
 30
0.0
 10
-2.95448031496063
 20
3.26792125984252
 30
0.0
 10
-2.95448031496063
 20
3.26792125984252
 30
0.0
 10
-2.95448031496063
 20
3.26792125984252
 30
0.0
 10
-2.95448031496063
 20
3.26792125984252
 30
0.0
 10
-3.025220472440945
 20
3.157610236220473
 30
0.0
 10
-3.025220472440945
 20
3.157610236220473
 30
0.0
 10
-3.025220472440945
 20
3.157610236220473
 30
0.0
 10
-3.025220472440945
 20
3.157610236220473
 30
0.0
 10
-3.086787401574803
 20
3.041929133858268
 30
0.0
 10
-3.086787401574803
 20
3.041929133858268
 30
0.0
 10
-3.086787401574803
 20
3.041929133858268
 30
0.0
 10
-3.086787401574803
 20
3.041929133858268
 30
0.0
 10
-3.138779527559055
 20
2.921661417322835
 30
0.0
 10
-3.138779527559055
 20
2.921661417322835
 30
0.0
 10
-3.138779527559055
 20
2.921661417322835
 30
0.0
 10
-3.138779527559055
 20
2.921661417322835
 30
0.0
 10
-3.180874015748032
 20
2.797555118110236
 30
0.0
 10
-3.180874015748032
 20
2.797555118110236
 30
0.0
 10
-3.180874015748032
 20
2.797555118110236
 30
0.0
 10
-3.180874015748032
 20
2.797555118110236
 30
0.0
 10
-3.212771653543307
 20
2.670472440944882
 30
0.0
 10
-3.212771653543307
 20
2.670472440944882
 30
0.0
 10
-3.212771653543307
 20
2.670472440944882
 30
0.0
 10
-3.212771653543307
 20
2.670472440944882
 30
0.0
 10
-3.234291338582677
 20
2.541192913385827
 30
0.0
 10
-3.234291338582677
 20
2.541192913385827
 30
0.0
 10
-3.234291338582677
 20
2.541192913385827
 30
0.0
 10
-3.234291338582677
 20
2.541192913385827
 30
0.0
 10
-3.245263779527559
 20
2.410594488188976
 30
0.0
 10
-3.245263779527559
 20
2.410594488188976
 30
0.0
 10
-3.245263779527559
 20
2.410594488188976
 30
0.0
 10
-3.245263779527559
 20
2.410594488188976
 30
0.0
 10
-3.245622047244094
 20
2.279507874015748
 30
0.0
 10
-3.245622047244094
 20
2.279507874015748
 30
0.0
 10
-3.245622047244094
 20
2.279507874015748
 30
0.0
 10
-3.245622047244094
 20
2.279507874015748
 30
0.0
 10
-3.235377952755905
 20
2.148917322834646
 30
0.0
 10
-3.235377952755905
 20
2.148917322834646
 30
0.0
 10
-3.235377952755905
 20
2.148917322834646
 30
0.0
 10
-3.235377952755905
 20
2.148917322834646
 30
0.0
 10
-3.214594488188976
 20
2.019535433070866
 30
0.0
 10
-3.214594488188976
 20
2.019535433070866
 30
0.0
 10
-3.214594488188976
 20
2.019535433070866
 30
0.0
 10
-3.214594488188976
 20
2.019535433070866
 30
0.0
 10
-3.183389763779528
 20
1.892255905511811
 30
0.0
 10
-3.183389763779528
 20
1.892255905511811
 30
0.0
 10
-3.183389763779528
 20
1.892255905511811
 30
0.0
 10
-3.183389763779528
 20
1.892255905511811
 30
0.0
 10
-3.141984251968504
 20
1.76792125984252
 30
0.0
 10
-3.141984251968504
 20
1.76792125984252
 30
0.0
 10
-3.141984251968504
 20
1.76792125984252
 30
0.0
 10
-3.141984251968504
 20
1.76792125984252
 30
0.0
 10
-3.010811023622047
 20
1.76792125984252
 30
0.0
 10
-3.010811023622047
 20
1.76792125984252
 30
0.0
 10
-3.010811023622047
 20
1.76792125984252
 30
0.0
 10
-3.010811023622047
 20
1.76792125984252
 30
0.0
 10
-3.010811023622047
 20
1.926696850393701
 30
0.0
 10
-3.010811023622047
 20
1.926696850393701
 30
0.0
 10
-3.010811023622047
 20
1.926696850393701
 30
0.0
 10
-3.010811023622047
 20
1.926696850393701
 30
0.0
 10
-2.898240157480315
 20
1.926618110236221
 30
0.0
 10
-2.898240157480315
 20
1.926618110236221
 30
0.0
 10
-2.898240157480315
 20
1.926618110236221
 30
0.0
 10
-2.898240157480315
 20
1.926618110236221
 30
0.0
 10
-2.898240157480315
 20
1.767842519685039
 30
0.0
 10
-2.898240157480315
 20
1.767842519685039
 30
0.0
 10
-2.898240157480315
 20
1.767842519685039
 30
0.0
 10
-2.898240157480315
 20
1.767842519685039
 30
0.0
 10
-2.766984251968504
 20
1.76792125984252
 30
0.0
 10
-2.766984251968504
 20
1.76792125984252
 30
0.0
 10
-2.766984251968504
 20
1.76792125984252
 30
0.0
 10
-2.766984251968504
 20
1.76792125984252
 30
0.0
 10
-2.725594488188976
 20
1.892255905511811
 30
0.0
 10
-2.725594488188976
 20
1.892255905511811
 30
0.0
 10
-2.725594488188976
 20
1.892255905511811
 30
0.0
 10
-2.725594488188976
 20
1.892255905511811
 30
0.0
 10
-2.694385826771653
 20
2.019535433070866
 30
0.0
 10
-2.694385826771653
 20
2.019535433070866
 30
0.0
 10
-2.694385826771653
 20
2.019535433070866
 30
0.0
 10
-2.694385826771653
 20
2.019535433070866
 30
0.0
 10
-2.673590551181102
 20
2.148956692913386
 30
0.0
 10
-2.673590551181102
 20
2.148956692913386
 30
0.0
 10
-2.673590551181102
 20
2.148956692913386
 30
0.0
 10
-2.673590551181102
 20
2.148956692913386
 30
0.0
 10
-2.663346456692913
 20
2.279555118110236
 30
0.0
 10
-2.663346456692913
 20
2.279555118110236
 30
0.0
 10
-2.663346456692913
 20
2.279555118110236
 30
0.0
 10
-2.663346456692913
 20
2.279555118110236
 30
0.0
 10
-2.663708661417323
 20
2.410496062992126
 30
0.0
 10
-2.663708661417323
 20
2.410496062992126
 30
0.0
  0
ENDSEC
  0
SECTION
  2
OBJECTS
  0
DICTIONARY
  5
C
330
0
100
AcDbDictionary
281
     1
  3
ACAD_GROUP
350
D
  3
ACAD_LAYOUT
350
1A
  3
ACAD_MATERIAL
350
3B
  3
ACAD_MLEADERSTYLE
350
7B
  3
ACAD_MLINESTYLE
350
17
  3
ACAD_PLOTSETTINGS
350
19
  3
ACAD_PLOTSTYLENAME
350
E
  3
ACAD_TABLESTYLE
350
7A
  3
ACAD_VISUALSTYLE
350
2A
  0
DICTIONARY
  5
D
102
{ACAD_REACTORS
330
C
102
}
330
C
100
AcDbDictionary
281
     1
  0
DICTIONARY
  5
1A
102
{ACAD_REACTORS
330
C
102
}
330
C
100
AcDbDictionary
281
     1
  3
Layout1
350
1E
  3
Layout2
350
26
  3
Model
350
22
  0
DICTIONARY
  5
3B
102
{ACAD_REACTORS
330
C
102
}
330
C
100
AcDbDictionary
281
     1
  3
ByBlock
350
3D
  3
ByLayer
350
3C
  3
Global
350
3E
  0
DICTIONARY
  5
7B
102
{ACAD_REACTORS
330
C
102
}
330
C
100
AcDbDictionary
281
     1
  0
DICTIONARY
  5
17
102
{ACAD_REACTORS
330
C
102
}
330
C
100
AcDbDictionary
281
     1
  3
Standard
350
18
  0
DICTIONARY
  5
19
102
{ACAD_REACTORS
330
C
102
}
330
C
100
AcDbDictionary
281
     1
  0
ACDBDICTIONARYWDFLT
  5
E
102
{ACAD_REACTORS
330
C
102
}
330
C
100
AcDbDictionary
281
     1
  3
Normal
350
F
100
AcDbDictionaryWithDefault
340
F
  0
DICTIONARY
  5
7A
102
{ACAD_REACTORS
330
C
102
}
330
C
100
AcDbDictionary
281
     1
  0
DICTIONARY
  5
2A
102
{ACAD_REACTORS
330
C
102
}
330
C
100
AcDbDictionary
281
     1
  3
2dWireframe
350
2F
  3
3D Hidden
350
31
  3
3dWireframe
350
30
  3
Basic
350
32
  3
Brighten
350
36
  3
ColorChange
350
3A
  3
Conceptual
350
34
  3
Dim
350
35
  3
Facepattern
350
39
  3
Flat
350
2B
  3
FlatWithEdges
350
2C
  3
Gouraud
350
2D
  3
GouraudWithEdges
350
2E
  3
Linepattern
350
38
  3
Realistic
350
33
  3
Thicken
350
37
  0
LAYOUT
  5
1E
102
{ACAD_REACTORS
330
1A
102
}
330
1A
100
AcDbPlotSettings
  1

  2
none_device
  4

  6

 40
0.0
 41
0.0
 42
0.0
 43
0.0
 44
0.0
 45
0.0
 46
0.0
 47
0.0
 48
0.0
 49
0.0
140
0.0
141
0.0
142
1.0
143
1.0
 70
   688
 72
     0
 73
     0
 74
     5
  7

 75
    16
 76
     0
 77
     2
 78
   300
147
1.0
148
0.0
149
0.0
100
AcDbLayout
  1
Layout1
 70
     1
 71
     1
 10
0.0
 20
0.0
 11
12.0
 21
9.0
 12
0.0
 22
0.0
 32
0.0
 14
1.000000000000000E+20
 24
1.000000000000000E+20
 34
1.000000000000000E+20
 15
-1.000000000000000E+20
 25
-1.000000000000000E+20
 35
-1.000000000000000E+20
146
0.0
 13
0.0
 23
0.0
 33
0.0
 16
1.0
 26
0.0
 36
0.0
 17
0.0
 27
1.0
 37
0.0
 76
     0
330
1B
  0
LAYOUT
  5
26
102
{ACAD_REACTORS
330
1A
102
}
330
1A
100
AcDbPlotSettings
  1

  2
none_device
  4

  6

 40
0.0
 41
0.0
 42
0.0
 43
0.0
 44
0.0
 45
0.0
 46
0.0
 47
0.0
 48
0.0
 49
0.0
140
0.0
141
0.0
142
1.0
143
1.0
 70
   688
 72
     0
 73
     0
 74
     5
  7

 75
    16
 76
     0
 77
     2
 78
   300
147
1.0
148
0.0
149
0.0
100
AcDbLayout
  1
Layout2
 70
     1
 71
     2
 10
0.0
 20
0.0
 11
0.0
 21
0.0
 12
0.0
 22
0.0
 32
0.0
 14
0.0
 24
0.0
 34
0.0
 15
0.0
 25
0.0
 35
0.0
146
0.0
 13
0.0
 23
0.0
 33
0.0
 16
1.0
 26
0.0
 36
0.0
 17
0.0
 27
1.0
 37
0.0
 76
     0
330
23
  0
LAYOUT
  5
22
102
{ACAD_REACTORS
330
1A
102
}
330
1A
100
AcDbPlotSettings
  1

  2
none_device
  4

  6

 40
0.0
 41
0.0
 42
0.0
 43
0.0
 44
0.0
 45
0.0
 46
0.0
 47
0.0
 48
0.0
 49
0.0
140
0.0
141
0.0
142
1.0
143
1.0
 70
  1712
 72
     0
 73
     0
 74
     0
  7

 75
     0
 76
     0
 77
     2
 78
   300
147
1.0
148
0.0
149
0.0
100
AcDbLayout
  1
Model
 70
     1
 71
     0
 10
0.0
 20
0.0
 11
12.0
 21
9.0
 12
0.0
 22
0.0
 32
0.0
 14
-3.887748031496063
 24
-0.0639606299212598
 34
0.0
 15
-0.766007874015748
 25
5.260031496062992
 35
0.0
146
0.0
 13
0.0
 23
0.0
 33
0.0
 16
1.0
 26
0.0
 36
0.0
 17
0.0
 27
1.0
 37
0.0
 76
     0
330
1F
331
29
  0
MATERIAL
  5
3D
102
{ACAD_REACTORS
330
3B
102
}
330
3B
100
AcDbMaterial
  1
ByBlock
 72
     1
 94
      127
  0
MATERIAL
  5
3C
102
{ACAD_REACTORS
330
3B
102
}
330
3B
100
AcDbMaterial
  1
ByLayer
 72
     1
 94
      127
  0
MATERIAL
  5
3E
102
{ACAD_REACTORS
330
3B
102
}
330
3B
100
AcDbMaterial
  1
Global
 72
     1
 94
      127
  0
MLINESTYLE
  5
18
102
{ACAD_REACTORS
330
17
102
}
330
17
100
AcDbMlineStyle
  2
Standard
 70
     0
  3

 62
   256
 51
90.0
 52
90.0
 71
     2
 49
0.5
 62
   256
  6
BYLAYER
 49
-0.5
 62
   256
  6
BYLAYER
  0
ACDBPLACEHOLDER
  5
F
102
{ACAD_REACTORS
330
E
102
}
330
E
  0
VISUALSTYLE
  5
2F
102
{ACAD_REACTORS
330
2A
102
}
102
{ACAD_XDICTIONARY
360
62
102
}
330
2A
100
AcDbVisualStyle
  2
2dWireframe
 70
     4
 71
     0
 72
     2
 73
     0
 90
        0
 40
-0.6
 41
-30.0
 62
     5
 63
     7
421
 16777215
 74
     1
 91
        4
 64
     7
 65
   257
 75
     1
175
     1
 42
1.0
 92
        0
 66
   257
 43
1.0
 76
     1
 77
     6
 78
     2
 67
     7
 79
     5
170
     0
171
     0
290
     0
174
     0
 93
        1
 44
0.0
173
     0
291
     0
 45
0.0
  0
VISUALSTYLE
  5
31
102
{ACAD_REACTORS
330
2A
102
}
102
{ACAD_XDICTIONARY
360
66
102
}
330
2A
100
AcDbVisualStyle
  2
3D Hidden
 70
     6
 71
     1
 72
     2
 73
     2
 90
        0
 40
-0.6
 41
-30.0
 62
     5
 63
     7
421
 16777215
 74
     2
 91
        2
 64
     7
 65
   257
 75
     2
175
     1
 42
40.0
 92
        0
 66
   257
 43
1.0
 76
     1
 77
     6
 78
     2
 67
     7
 79
     3
170
     0
171
     0
290
     0
174
     0
 93
        1
 44
0.0
173
     0
291
     0
 45
0.0
  0
VISUALSTYLE
  5
30
102
{ACAD_REACTORS
330
2A
102
}
102
{ACAD_XDICTIONARY
360
64
102
}
330
2A
100
AcDbVisualStyle
  2
3dWireframe
 70
     5
 71
     0
 72
     2
 73
     0
 90
        0
 40
-0.6
 41
-30.0
 62
     5
 63
     7
421
 16777215
 74
     1
 91
        4
 64
     7
 65
   257
 75
     1
175
     1
 42
1.0
 92
        0
 66
   257
 43
1.0
 76
     1
 77
     6
 78
     2
 67
     7
 79
     5
170
     0
171
     0
290
     0
174
     0
 93
        1
 44
0.0
173
     0
291
     0
 45
0.0
  0
VISUALSTYLE
  5
32
102
{ACAD_REACTORS
330
2A
102
}
102
{ACAD_XDICTIONARY
360
68
102
}
330
2A
100
AcDbVisualStyle
  2
Basic
 70
     7
 71
     1
 72
     0
 73
     1
 90
        0
 40
-0.6
 41
-30.0
 62
     5
 63
     7
421
 16777215
 74
     0
 91
        4
 64
     7
 65
   257
 75
     1
175
     1
 42
1.0
 92
        8
 66
     7
 43
1.0
 76
     1
 77
     6
 78
     2
 67
     7
 79
     5
170
     0
171
     0
290
     0
174
     0
 93
        1
 44
0.0
173
     0
291
     1
 45
0.0
  0
VISUALSTYLE
  5
36
102
{ACAD_REACTORS
330
2A
102
}
102
{ACAD_XDICTIONARY
360
70
102
}
330
2A
100
AcDbVisualStyle
  2
Brighten
 70
    12
 71
     2
 72
     2
 73
     0
 90
        0
 40
-0.6
 41
-30.0
 62
     5
 63
     7
421
 16777215
 74
     1
 91
        4
 64
     7
 65
   257
 75
     1
175
     1
 42
1.0
 92
        8
 66
     7
 43
1.0
 76
     1
 77
     6
 78
     2
 67
     7
 79
     5
170
     0
171
     0
290
     0
174
     0
 93
        1
 44
50.0
173
     0
291
     1
 45
0.0
  0
VISUALSTYLE
  5
3A
102
{ACAD_REACTORS
330
2A
102
}
102
{ACAD_XDICTIONARY
360
78
102
}
330
2A
100
AcDbVisualStyle
  2
ColorChange
 70
    16
 71
     2
 72
     2
 73
     3
 90
        0
 40
-0.6
 41
-30.0
 62
     5
 63
     8
421
  8421504
 74
     1
 91
        4
 64
     7
 65
   257
 75
     1
175
     1
 42
1.0
 92
        8
 66
     8
424
  8421504
 43
1.0
 76
     1
 77
     6
 78
     2
 67
     7
 79
     5
170
     0
171
     0
290
     0
174
     0
 93
        1
 44
0.0
173
     0
291
     1
 45
0.0
  0
VISUALSTYLE
  5
34
102
{ACAD_REACTORS
330
2A
102
}
102
{ACAD_XDICTIONARY
360
6C
102
}
330
2A
100
AcDbVisualStyle
  2
Conceptual
 70
     9
 71
     3
 72
     2
 73
     0
 90
        0
 40
-0.6
 41
-30.0
 62
     5
 63
     7
421
 16777215
 74
     2
 91
        2
 64
     7
 65
   257
 75
     1
175
     1
 42
40.0
 92
        8
 66
     7
 43
1.0
 76
     1
 77
     6
 78
     2
 67
     7
 79
     3
170
     0
171
     0
290
     0
174
     0
 93
        1
 44
0.0
173
     0
291
     0
 45
0.0
  0
VISUALSTYLE
  5
35
102
{ACAD_REACTORS
330
2A
102
}
102
{ACAD_XDICTIONARY
360
6E
102
}
330
2A
100
AcDbVisualStyle
  2
Dim
 70
    11
 71
     2
 72
     2
 73
     0
 90
        0
 40
-0.6
 41
-30.0
 62
     5
 63
     7
421
 16777215
 74
     1
 91
        4
 64
     7
 65
   257
 75
     1
175
     1
 42
1.0
 92
        8
 66
     7
 43
1.0
 76
     1
 77
     6
 78
     2
 67
     7
 79
     5
170
     0
171
     0
290
     0
174
     0
 93
        1
 44
-50.0
173
     0
291
     1
 45
0.0
  0
VISUALSTYLE
  5
39
102
{ACAD_REACTORS
330
2A
102
}
102
{ACAD_XDICTIONARY
360
76
102
}
330
2A
100
AcDbVisualStyle
  2
Facepattern
 70
    15
 71
     2
 72
     2
 73
     0
 90
        0
 40
-0.6
 41
-30.0
 62
     5
 63
     7
421
 16777215
 74
     1
 91
        4
 64
     7
 65
   257
 75
     1
175
     1
 42
1.0
 92
        8
 66
     7
 43
1.0
 76
     1
 77
     6
 78
     2
 67
     7
 79
     5
170
     0
171
     0
290
     0
174
     0
 93
        1
 44
0.0
173
     0
291
     1
 45
0.0
  0
VISUALSTYLE
  5
2B
102
{ACAD_REACTORS
330
2A
102
}
102
{ACAD_XDICTIONARY
360
5A
102
}
330
2A
100
AcDbVisualStyle
  2
Flat
 70
     0
 71
     2
 72
     1
 73
     1
 90
        2
 40
-0.6
 41
30.0
 62
     5
 63
     7
421
 16777215
 74
     0
 91
        4
 64
     7
 65
   257
 75
     1
175
     1
 42
1.0
 92
        8
 66
     7
 43
1.0
 76
     1
 77
     6
 78
     2
 67
     7
 79
     5
170
     0
171
     0
290
     0
174
     0
 93
       13
 44
0.0
173
     0
291
     1
 45
0.0
  0
VISUALSTYLE
  5
2C
102
{ACAD_REACTORS
330
2A
102
}
102
{ACAD_XDICTIONARY
360
5C
102
}
330
2A
100
AcDbVisualStyle
  2
FlatWithEdges
 70
     1
 71
     2
 72
     1
 73
     1
 90
        2
 40
-0.6
 41
30.0
 62
     5
 63
     7
421
 16777215
 74
     1
 91
        4
 64
     7
 65
   257
 75
     1
175
     1
 42
1.0
 92
        0
 66
   257
 43
1.0
 76
     1
 77
     6
 78
     2
 67
     7
 79
     5
170
     0
171
     0
290
     0
174
     0
 93
       13
 44
0.0
173
     0
291
     1
 45
0.0
  0
VISUALSTYLE
  5
2D
102
{ACAD_REACTORS
330
2A
102
}
102
{ACAD_XDICTIONARY
360
5E
102
}
330
2A
100
AcDbVisualStyle
  2
Gouraud
 70
     2
 71
     2
 72
     2
 73
     1
 90
        2
 40
-0.6
 41
30.0
 62
     5
 63
     7
421
 16777215
 74
     0
 91
        4
 64
     7
 65
   257
 75
     1
175
     1
 42
1.0
 92
        0
 66
     7
 43
1.0
 76
     1
 77
     6
 78
     2
 67
     7
 79
     5
170
     0
171
     0
290
     0
174
     0
 93
       13
 44
0.0
173
     0
291
     1
 45
0.0
  0
VISUALSTYLE
  5
2E
102
{ACAD_REACTORS
330
2A
102
}
102
{ACAD_XDICTIONARY
360
60
102
}
330
2A
100
AcDbVisualStyle
  2
GouraudWithEdges
 70
     3
 71
     2
 72
     2
 73
     1
 90
        2
 40
-0.6
 41
30.0
 62
     5
 63
     7
421
 16777215
 74
     1
 91
        4
 64
     7
 65
   257
 75
     1
175
     1
 42
1.0
 92
        0
 66
   257
 43
1.0
 76
     1
 77
     6
 78
     2
 67
     7
 79
     5
170
     0
171
     0
290
     0
174
     0
 93
       13
 44
0.0
173
     0
291
     1
 45
0.0
  0
VISUALSTYLE
  5
38
102
{ACAD_REACTORS
330
2A
102
}
102
{ACAD_XDICTIONARY
360
74
102
}
330
2A
100
AcDbVisualStyle
  2
Linepattern
 70
    14
 71
     2
 72
     2
 73
     0
 90
        0
 40
-0.6
 41
-30.0
 62
     5
 63
     7
421
 16777215
 74
     1
 91
        4
 64
     7
 65
   257
 75
     7
175
     7
 42
1.0
 92
        8
 66
     7
 43
1.0
 76
     1
 77
     6
 78
     2
 67
     7
 79
     5
170
     0
171
     0
290
     0
174
     0
 93
        1
 44
0.0
173
     0
291
     1
 45
0.0
  0
VISUALSTYLE
  5
33
102
{ACAD_REACTORS
330
2A
102
}
102
{ACAD_XDICTIONARY
360
6A
102
}
330
2A
100
AcDbVisualStyle
  2
Realistic
 70
     8
 71
     2
 72
     2
 73
     0
 90
        0
 40
-0.6
 41
-30.0
 62
     5
 63
     7
421
 16777215
 74
     1
 91
        0
 64
     7
 65
   257
 75
     1
175
     1
 42
1.0
 92
        8
 66
     8
424
  7895160
 43
1.0
 76
     1
 77
     6
 78
     2
 67
     7
 79
     5
170
     0
171
     0
290
     0
174
     0
 93
       13
 44
0.0
173
     0
291
     0
 45
0.0
  0
VISUALSTYLE
  5
37
102
{ACAD_REACTORS
330
2A
102
}
102
{ACAD_XDICTIONARY
360
72
102
}
330
2A
100
AcDbVisualStyle
  2
Thicken
 70
    13
 71
     2
 72
     2
 73
     0
 90
        0
 40
-0.6
 41
-30.0
 62
     5
 63
     7
421
 16777215
 74
     1
 91
        4
 64
     7
 65
   257
 75
     1
175
     1
 42
1.0
 92
       12
 66
     7
 43
1.0
 76
     1
 77
     6
 78
     2
 67
     7
 79
     5
170
     0
171
     0
290
     0
174
     0
 93
        1
 44
0.0
173
     0
291
     1
 45
0.0
  0
DICTIONARY
  5
62
330
2F
100
AcDbDictionary
280
     1
281
     1
  3
ACAD_XREC_ROUNDTRIP
360
63
  0
DICTIONARY
  5
66
330
31
100
AcDbDictionary
280
     1
281
     1
  3
ACAD_XREC_ROUNDTRIP
360
67
  0
DICTIONARY
  5
64
330
30
100
AcDbDictionary
280
     1
281
     1
  3
ACAD_XREC_ROUNDTRIP
360
65
  0
DICTIONARY
  5
68
330
32
100
AcDbDictionary
280
     1
281
     1
  3
ACAD_XREC_ROUNDTRIP
360
69
  0
DICTIONARY
  5
70
330
36
100
AcDbDictionary
280
     1
281
     1
  3
ACAD_XREC_ROUNDTRIP
360
71
  0
DICTIONARY
  5
78
330
3A
100
AcDbDictionary
280
     1
281
     1
  3
ACAD_XREC_ROUNDTRIP
360
79
  0
DICTIONARY
  5
6C
330
34
100
AcDbDictionary
280
     1
281
     1
  3
ACAD_XREC_ROUNDTRIP
360
6D
  0
DICTIONARY
  5
6E
330
35
100
AcDbDictionary
280
     1
281
     1
  3
ACAD_XREC_ROUNDTRIP
360
6F
  0
DICTIONARY
  5
76
330
39
100
AcDbDictionary
280
     1
281
     1
  3
ACAD_XREC_ROUNDTRIP
360
77
  0
DICTIONARY
  5
5A
330
2B
100
AcDbDictionary
280
     1
281
     1
  3
ACAD_XREC_ROUNDTRIP
360
5B
  0
DICTIONARY
  5
5C
330
2C
100
AcDbDictionary
280
     1
281
     1
  3
ACAD_XREC_ROUNDTRIP
360
5D
  0
DICTIONARY
  5
5E
330
2D
100
AcDbDictionary
280
     1
281
     1
  3
ACAD_XREC_ROUNDTRIP
360
5F
  0
DICTIONARY
  5
60
330
2E
100
AcDbDictionary
280
     1
281
     1
  3
ACAD_XREC_ROUNDTRIP
360
61
  0
DICTIONARY
  5
74
330
38
100
AcDbDictionary
280
     1
281
     1
  3
ACAD_XREC_ROUNDTRIP
360
75
  0
DICTIONARY
  5
6A
330
33
100
AcDbDictionary
280
     1
281
     1
  3
ACAD_XREC_ROUNDTRIP
360
6B
  0
DICTIONARY
  5
72
330
37
100
AcDbDictionary
280
     1
281
     1
  3
ACAD_XREC_ROUNDTRIP
360
73
  0
XRECORD
  5
63
102
{ACAD_REACTORS
330
62
102
}
330
62
100
AcDbXrecord
280
     1
102
RTVSPropertyOp0
 70
     1
102
RTVSPropertyOp1
 70
     1
102
RTVSPropertyOp2
 70
     1
102
RTVSPropertyOp3
 70
     1
102
RTVSPropertyOp4
 70
     1
102
RTVSPropertyOp5
 70
     1
102
RTVSPropertyOp6
 70
     1
102
RTVSPropertyOp7
 70
     1
102
RTVSPropertyOp8
 70
     1
102
RTVSPropertyOp9
 70
     1
102
RTVSPropertyOp10
 70
     1
102
RTVSPropertyOp11
 70
     1
102
RTVSPropertyOp12
 70
     1
102
RTVSPropertyOp13
 70
     1
102
RTVSPropertyOp14
 70
     1
102
RTVSPropertyOp15
 70
     1
102
RTVSPropertyOp16
 70
     1
102
RTVSPropertyOp17
 70
     1
102
RTVSPropertyOp18
 70
     1
102
RTVSPropertyOp19
 70
     1
102
RTVSPropertyOp20
 70
     1
102
RTVSPropertyOp21
 70
     1
102
RTVSPropertyOp22
 70
     1
102
RTVSPropertyOp23
 70
     1
102
RTVSPropertyOp24
 70
     1
102
RTVSPropertyOp25
 70
     1
102
RTVSPropertyOp26
 70
     1
102
RTVSPropertyOp27
 70
     1
  0
XRECORD
  5
67
102
{ACAD_REACTORS
330
66
102
}
330
66
100
AcDbXrecord
280
     1
102
RTVSPropertyOp0
 70
     1
102
RTVSPropertyOp1
 70
     1
102
RTVSPropertyOp2
 70
     1
102
RTVSPropertyOp3
 70
     1
102
RTVSPropertyOp4
 70
     1
102
RTVSPropertyOp5
 70
     1
102
RTVSPropertyOp6
 70
     1
102
RTVSPropertyOp7
 70
     1
102
RTVSPropertyOp8
 70
     1
102
RTVSPropertyOp9
 70
     1
102
RTVSPropertyOp10
 70
     1
102
RTVSPropertyOp11
 70
     1
102
RTVSPropertyOp12
 70
     1
102
RTVSPropertyOp13
 70
     1
102
RTVSPropertyOp14
 70
     1
102
RTVSPropertyOp15
 70
     1
102
RTVSPropertyOp16
 70
     1
102
RTVSPropertyOp17
 70
     1
102
RTVSPropertyOp18
 70
     1
102
RTVSPropertyOp19
 70
     1
102
RTVSPropertyOp20
 70
     1
102
RTVSPropertyOp21
 70
     1
102
RTVSPropertyOp22
 70
     1
102
RTVSPropertyOp23
 70
     1
102
RTVSPropertyOp24
 70
     1
102
RTVSPropertyOp25
 70
     1
102
RTVSPropertyOp26
 70
     1
102
RTVSPropertyOp27
 70
     1
  0
XRECORD
  5
65
102
{ACAD_REACTORS
330
64
102
}
330
64
100
AcDbXrecord
280
     1
102
RTVSPropertyOp0
 70
     1
102
RTVSPropertyOp1
 70
     1
102
RTVSPropertyOp2
 70
     1
102
RTVSPropertyOp3
 70
     1
102
RTVSPropertyOp4
 70
     1
102
RTVSPropertyOp5
 70
     1
102
RTVSPropertyOp6
 70
     1
102
RTVSPropertyOp7
 70
     1
102
RTVSPropertyOp8
 70
     1
102
RTVSPropertyOp9
 70
     1
102
RTVSPropertyOp10
 70
     1
102
RTVSPropertyOp11
 70
     1
102
RTVSPropertyOp12
 70
     1
102
RTVSPropertyOp13
 70
     1
102
RTVSPropertyOp14
 70
     1
102
RTVSPropertyOp15
 70
     1
102
RTVSPropertyOp16
 70
     1
102
RTVSPropertyOp17
 70
     1
102
RTVSPropertyOp18
 70
     1
102
RTVSPropertyOp19
 70
     1
102
RTVSPropertyOp20
 70
     1
102
RTVSPropertyOp21
 70
     1
102
RTVSPropertyOp22
 70
     1
102
RTVSPropertyOp23
 70
     1
102
RTVSPropertyOp24
 70
     1
102
RTVSPropertyOp25
 70
     1
102
RTVSPropertyOp26
 70
     1
102
RTVSPropertyOp27
 70
     1
  0
XRECORD
  5
69
102
{ACAD_REACTORS
330
68
102
}
330
68
100
AcDbXrecord
280
     1
102
RTVSPropertyOp0
 70
     1
102
RTVSPropertyOp1
 70
     1
102
RTVSPropertyOp2
 70
     1
102
RTVSPropertyOp3
 70
     1
102
RTVSPropertyOp4
 70
     1
102
RTVSPropertyOp5
 70
     1
102
RTVSPropertyOp6
 70
     1
102
RTVSPropertyOp7
 70
     1
102
RTVSPropertyOp8
 70
     1
102
RTVSPropertyOp9
 70
     1
102
RTVSPropertyOp10
 70
     1
102
RTVSPropertyOp11
 70
     1
102
RTVSPropertyOp12
 70
     1
102
RTVSPropertyOp13
 70
     1
102
RTVSPropertyOp14
 70
     1
102
RTVSPropertyOp15
 70
     1
102
RTVSPropertyOp16
 70
     1
102
RTVSPropertyOp17
 70
     1
102
RTVSPropertyOp18
 70
     1
102
RTVSPropertyOp19
 70
     1
102
RTVSPropertyOp20
 70
     1
102
RTVSPropertyOp21
 70
     1
102
RTVSPropertyOp22
 70
     1
102
RTVSPropertyOp23
 70
     1
102
RTVSPropertyOp24
 70
     1
102
RTVSPropertyOp25
 70
     1
102
RTVSPropertyOp26
 70
     1
102
RTVSPropertyOp27
 70
     1
  0
XRECORD
  5
71
102
{ACAD_REACTORS
330
70
102
}
330
70
100
AcDbXrecord
280
     1
102
RTVSPropertyOp0
 70
     1
102
RTVSPropertyOp1
 70
     1
102
RTVSPropertyOp2
 70
     1
102
RTVSPropertyOp3
 70
     1
102
RTVSPropertyOp4
 70
     1
102
RTVSPropertyOp5
 70
     1
102
RTVSPropertyOp6
 70
     1
102
RTVSPropertyOp7
 70
     1
102
RTVSPropertyOp8
 70
     1
102
RTVSPropertyOp9
 70
     1
102
RTVSPropertyOp10
 70
     1
102
RTVSPropertyOp11
 70
     1
102
RTVSPropertyOp12
 70
     1
102
RTVSPropertyOp13
 70
     1
102
RTVSPropertyOp14
 70
     1
102
RTVSPropertyOp15
 70
     1
102
RTVSPropertyOp16
 70
     1
102
RTVSPropertyOp17
 70
     1
102
RTVSPropertyOp18
 70
     1
102
RTVSPropertyOp19
 70
     1
102
RTVSPropertyOp20
 70
     1
102
RTVSPropertyOp21
 70
     1
102
RTVSPropertyOp22
 70
     1
102
RTVSPropertyOp23
 70
     1
102
RTVSPropertyOp24
 70
     1
102
RTVSPropertyOp25
 70
     1
102
RTVSPropertyOp26
 70
     1
102
RTVSPropertyOp27
 70
     1
  0
XRECORD
  5
79
102
{ACAD_REACTORS
330
78
102
}
330
78
100
AcDbXrecord
280
     1
102
RTVSPropertyOp0
 70
     1
102
RTVSPropertyOp1
 70
     1
102
RTVSPropertyOp2
 70
     1
102
RTVSPropertyOp3
 70
     1
102
RTVSPropertyOp4
 70
     1
102
RTVSPropertyOp5
 70
     1
102
RTVSPropertyOp6
 70
     1
102
RTVSPropertyOp7
 70
     1
102
RTVSPropertyOp8
 70
     1
102
RTVSPropertyOp9
 70
     1
102
RTVSPropertyOp10
 70
     1
102
RTVSPropertyOp11
 70
     1
102
RTVSPropertyOp12
 70
     1
102
RTVSPropertyOp13
 70
     1
102
RTVSPropertyOp14
 70
     1
102
RTVSPropertyOp15
 70
     1
102
RTVSPropertyOp16
 70
     1
102
RTVSPropertyOp17
 70
     1
102
RTVSPropertyOp18
 70
     1
102
RTVSPropertyOp19
 70
     1
102
RTVSPropertyOp20
 70
     1
102
RTVSPropertyOp21
 70
     1
102
RTVSPropertyOp22
 70
     1
102
RTVSPropertyOp23
 70
     1
102
RTVSPropertyOp24
 70
     1
102
RTVSPropertyOp25
 70
     1
102
RTVSPropertyOp26
 70
     1
102
RTVSPropertyOp27
 70
     1
  0
XRECORD
  5
6D
102
{ACAD_REACTORS
330
6C
102
}
330
6C
100
AcDbXrecord
280
     1
102
RTVSPropertyOp0
 70
     1
102
RTVSPropertyOp1
 70
     1
102
RTVSPropertyOp2
 70
     1
102
RTVSPropertyOp3
 70
     1
102
RTVSPropertyOp4
 70
     1
102
RTVSPropertyOp5
 70
     1
102
RTVSPropertyOp6
 70
     1
102
RTVSPropertyOp7
 70
     1
102
RTVSPropertyOp8
 70
     1
102
RTVSPropertyOp9
 70
     1
102
RTVSPropertyOp10
 70
     1
102
RTVSPropertyOp11
 70
     1
102
RTVSPropertyOp12
 70
     1
102
RTVSPropertyOp13
 70
     1
102
RTVSPropertyOp14
 70
     1
102
RTVSPropertyOp15
 70
     1
102
RTVSPropertyOp16
 70
     1
102
RTVSPropertyOp17
 70
     1
102
RTVSPropertyOp18
 70
     1
102
RTVSPropertyOp19
 70
     1
102
RTVSPropertyOp20
 70
     1
102
RTVSPropertyOp21
 70
     1
102
RTVSPropertyOp22
 70
     1
102
RTVSPropertyOp23
 70
     1
102
RTVSPropertyOp24
 70
     1
102
RTVSPropertyOp25
 70
     1
102
RTVSPropertyOp26
 70
     1
102
RTVSPropertyOp27
 70
     1
  0
XRECORD
  5
6F
102
{ACAD_REACTORS
330
6E
102
}
330
6E
100
AcDbXrecord
280
     1
102
RTVSPropertyOp0
 70
     1
102
RTVSPropertyOp1
 70
     1
102
RTVSPropertyOp2
 70
     1
102
RTVSPropertyOp3
 70
     1
102
RTVSPropertyOp4
 70
     1
102
RTVSPropertyOp5
 70
     1
102
RTVSPropertyOp6
 70
     1
102
RTVSPropertyOp7
 70
     1
102
RTVSPropertyOp8
 70
     1
102
RTVSPropertyOp9
 70
     1
102
RTVSPropertyOp10
 70
     1
102
RTVSPropertyOp11
 70
     1
102
RTVSPropertyOp12
 70
     1
102
RTVSPropertyOp13
 70
     1
102
RTVSPropertyOp14
 70
     1
102
RTVSPropertyOp15
 70
     1
102
RTVSPropertyOp16
 70
     1
102
RTVSPropertyOp17
 70
     1
102
RTVSPropertyOp18
 70
     1
102
RTVSPropertyOp19
 70
     1
102
RTVSPropertyOp20
 70
     1
102
RTVSPropertyOp21
 70
     1
102
RTVSPropertyOp22
 70
     1
102
RTVSPropertyOp23
 70
     1
102
RTVSPropertyOp24
 70
     1
102
RTVSPropertyOp25
 70
     1
102
RTVSPropertyOp26
 70
     1
102
RTVSPropertyOp27
 70
     1
  0
XRECORD
  5
77
102
{ACAD_REACTORS
330
76
102
}
330
76
100
AcDbXrecord
280
     1
102
RTVSPropertyOp0
 70
     1
102
RTVSPropertyOp1
 70
     1
102
RTVSPropertyOp2
 70
     1
102
RTVSPropertyOp3
 70
     1
102
RTVSPropertyOp4
 70
     1
102
RTVSPropertyOp5
 70
     1
102
RTVSPropertyOp6
 70
     1
102
RTVSPropertyOp7
 70
     1
102
RTVSPropertyOp8
 70
     1
102
RTVSPropertyOp9
 70
     1
102
RTVSPropertyOp10
 70
     1
102
RTVSPropertyOp11
 70
     1
102
RTVSPropertyOp12
 70
     1
102
RTVSPropertyOp13
 70
     1
102
RTVSPropertyOp14
 70
     1
102
RTVSPropertyOp15
 70
     1
102
RTVSPropertyOp16
 70
     1
102
RTVSPropertyOp17
 70
     1
102
RTVSPropertyOp18
 70
     1
102
RTVSPropertyOp19
 70
     1
102
RTVSPropertyOp20
 70
     1
102
RTVSPropertyOp21
 70
     1
102
RTVSPropertyOp22
 70
     1
102
RTVSPropertyOp23
 70
     1
102
RTVSPropertyOp24
 70
     1
102
RTVSPropertyOp25
 70
     1
102
RTVSPropertyOp26
 70
     1
102
RTVSPropertyOp27
 70
     1
  0
XRECORD
  5
5B
102
{ACAD_REACTORS
330
5A
102
}
330
5A
100
AcDbXrecord
280
     1
102
RTVSPropertyOp0
 70
     1
102
RTVSPropertyOp1
 70
     1
102
RTVSPropertyOp2
 70
     1
102
RTVSPropertyOp3
 70
     1
102
RTVSPropertyOp4
 70
     1
102
RTVSPropertyOp5
 70
     1
102
RTVSPropertyOp6
 70
     1
102
RTVSPropertyOp7
 70
     1
102
RTVSPropertyOp8
 70
     1
102
RTVSPropertyOp9
 70
     1
102
RTVSPropertyOp10
 70
     1
102
RTVSPropertyOp11
 70
     1
102
RTVSPropertyOp12
 70
     1
102
RTVSPropertyOp13
 70
     1
102
RTVSPropertyOp14
 70
     1
102
RTVSPropertyOp15
 70
     1
102
RTVSPropertyOp16
 70
     1
102
RTVSPropertyOp17
 70
     1
102
RTVSPropertyOp18
 70
     1
102
RTVSPropertyOp19
 70
     1
102
RTVSPropertyOp20
 70
     1
102
RTVSPropertyOp21
 70
     1
102
RTVSPropertyOp22
 70
     1
102
RTVSPropertyOp23
 70
     1
102
RTVSPropertyOp24
 70
     1
102
RTVSPropertyOp25
 70
     1
102
RTVSPropertyOp26
 70
     1
102
RTVSPropertyOp27
 70
     1
  0
XRECORD
  5
5D
102
{ACAD_REACTORS
330
5C
102
}
330
5C
100
AcDbXrecord
280
     1
102
RTVSPropertyOp0
 70
     1
102
RTVSPropertyOp1
 70
     1
102
RTVSPropertyOp2
 70
     1
102
RTVSPropertyOp3
 70
     1
102
RTVSPropertyOp4
 70
     1
102
RTVSPropertyOp5
 70
     1
102
RTVSPropertyOp6
 70
     1
102
RTVSPropertyOp7
 70
     1
102
RTVSPropertyOp8
 70
     1
102
RTVSPropertyOp9
 70
     1
102
RTVSPropertyOp10
 70
     1
102
RTVSPropertyOp11
 70
     1
102
RTVSPropertyOp12
 70
     1
102
RTVSPropertyOp13
 70
     1
102
RTVSPropertyOp14
 70
     1
102
RTVSPropertyOp15
 70
     1
102
RTVSPropertyOp16
 70
     1
102
RTVSPropertyOp17
 70
     1
102
RTVSPropertyOp18
 70
     1
102
RTVSPropertyOp19
 70
     1
102
RTVSPropertyOp20
 70
     1
102
RTVSPropertyOp21
 70
     1
102
RTVSPropertyOp22
 70
     1
102
RTVSPropertyOp23
 70
     1
102
RTVSPropertyOp24
 70
     1
102
RTVSPropertyOp25
 70
     1
102
RTVSPropertyOp26
 70
     1
102
RTVSPropertyOp27
 70
     1
  0
XRECORD
  5
5F
102
{ACAD_REACTORS
330
5E
102
}
330
5E
100
AcDbXrecord
280
     1
102
RTVSPropertyOp0
 70
     1
102
RTVSPropertyOp1
 70
     1
102
RTVSPropertyOp2
 70
     1
102
RTVSPropertyOp3
 70
     1
102
RTVSPropertyOp4
 70
     1
102
RTVSPropertyOp5
 70
     1
102
RTVSPropertyOp6
 70
     1
102
RTVSPropertyOp7
 70
     1
102
RTVSPropertyOp8
 70
     1
102
RTVSPropertyOp9
 70
     1
102
RTVSPropertyOp10
 70
     1
102
RTVSPropertyOp11
 70
     1
102
RTVSPropertyOp12
 70
     1
102
RTVSPropertyOp13
 70
     1
102
RTVSPropertyOp14
 70
     1
102
RTVSPropertyOp15
 70
     1
102
RTVSPropertyOp16
 70
     1
102
RTVSPropertyOp17
 70
     1
102
RTVSPropertyOp18
 70
     1
102
RTVSPropertyOp19
 70
     1
102
RTVSPropertyOp20
 70
     1
102
RTVSPropertyOp21
 70
     1
102
RTVSPropertyOp22
 70
     1
102
RTVSPropertyOp23
 70
     1
102
RTVSPropertyOp24
 70
     1
102
RTVSPropertyOp25
 70
     1
102
RTVSPropertyOp26
 70
     1
102
RTVSPropertyOp27
 70
     1
  0
XRECORD
  5
61
102
{ACAD_REACTORS
330
60
102
}
330
60
100
AcDbXrecord
280
     1
102
RTVSPropertyOp0
 70
     1
102
RTVSPropertyOp1
 70
     1
102
RTVSPropertyOp2
 70
     1
102
RTVSPropertyOp3
 70
     1
102
RTVSPropertyOp4
 70
     1
102
RTVSPropertyOp5
 70
     1
102
RTVSPropertyOp6
 70
     1
102
RTVSPropertyOp7
 70
     1
102
RTVSPropertyOp8
 70
     1
102
RTVSPropertyOp9
 70
     1
102
RTVSPropertyOp10
 70
     1
102
RTVSPropertyOp11
 70
     1
102
RTVSPropertyOp12
 70
     1
102
RTVSPropertyOp13
 70
     1
102
RTVSPropertyOp14
 70
     1
102
RTVSPropertyOp15
 70
     1
102
RTVSPropertyOp16
 70
     1
102
RTVSPropertyOp17
 70
     1
102
RTVSPropertyOp18
 70
     1
102
RTVSPropertyOp19
 70
     1
102
RTVSPropertyOp20
 70
     1
102
RTVSPropertyOp21
 70
     1
102
RTVSPropertyOp22
 70
     1
102
RTVSPropertyOp23
 70
     1
102
RTVSPropertyOp24
 70
     1
102
RTVSPropertyOp25
 70
     1
102
RTVSPropertyOp26
 70
     1
102
RTVSPropertyOp27
 70
     1
  0
XRECORD
  5
75
102
{ACAD_REACTORS
330
74
102
}
330
74
100
AcDbXrecord
280
     1
102
RTVSPropertyOp0
 70
     1
102
RTVSPropertyOp1
 70
     1
102
RTVSPropertyOp2
 70
     1
102
RTVSPropertyOp3
 70
     1
102
RTVSPropertyOp4
 70
     1
102
RTVSPropertyOp5
 70
     1
102
RTVSPropertyOp6
 70
     1
102
RTVSPropertyOp7
 70
     1
102
RTVSPropertyOp8
 70
     1
102
RTVSPropertyOp9
 70
     1
102
RTVSPropertyOp10
 70
     1
102
RTVSPropertyOp11
 70
     1
102
RTVSPropertyOp12
 70
     1
102
RTVSPropertyOp13
 70
     1
102
RTVSPropertyOp14
 70
     1
102
RTVSPropertyOp15
 70
     1
102
RTVSPropertyOp16
 70
     1
102
RTVSPropertyOp17
 70
     1
102
RTVSPropertyOp18
 70
     1
102
RTVSPropertyOp19
 70
     1
102
RTVSPropertyOp20
 70
     1
102
RTVSPropertyOp21
 70
     1
102
RTVSPropertyOp22
 70
     1
102
RTVSPropertyOp23
 70
     1
102
RTVSPropertyOp24
 70
     1
102
RTVSPropertyOp25
 70
     1
102
RTVSPropertyOp26
 70
     1
102
RTVSPropertyOp27
 70
     1
  0
XRECORD
  5
6B
102
{ACAD_REACTORS
330
6A
102
}
330
6A
100
AcDbXrecord
280
     1
102
RTVSPropertyOp0
 70
     1
102
RTVSPropertyOp1
 70
     1
102
RTVSPropertyOp2
 70
     1
102
RTVSPropertyOp3
 70
     1
102
RTVSPropertyOp4
 70
     1
102
RTVSPropertyOp5
 70
     1
102
RTVSPropertyOp6
 70
     1
102
RTVSPropertyOp7
 70
     1
102
RTVSPropertyOp8
 70
     1
102
RTVSPropertyOp9
 70
     1
102
RTVSPropertyOp10
 70
     1
102
RTVSPropertyOp11
 70
     1
102
RTVSPropertyOp12
 70
     1
102
RTVSPropertyOp13
 70
     1
102
RTVSPropertyOp14
 70
     1
102
RTVSPropertyOp15
 70
     1
102
RTVSPropertyOp16
 70
     1
102
RTVSPropertyOp17
 70
     1
102
RTVSPropertyOp18
 70
     1
102
RTVSPropertyOp19
 70
     1
102
RTVSPropertyOp20
 70
     1
102
RTVSPropertyOp21
 70
     1
102
RTVSPropertyOp22
 70
     1
102
RTVSPropertyOp23
 70
     1
102
RTVSPropertyOp24
 70
     1
102
RTVSPropertyOp25
 70
     1
102
RTVSPropertyOp26
 70
     1
102
RTVSPropertyOp27
 70
     1
  0
XRECORD
  5
73
102
{ACAD_REACTORS
330
72
102
}
330
72
100
AcDbXrecord
280
     1
102
RTVSPropertyOp0
 70
     1
102
RTVSPropertyOp1
 70
     1
102
RTVSPropertyOp2
 70
     1
102
RTVSPropertyOp3
 70
     1
102
RTVSPropertyOp4
 70
     1
102
RTVSPropertyOp5
 70
     1
102
RTVSPropertyOp6
 70
     1
102
RTVSPropertyOp7
 70
     1
102
RTVSPropertyOp8
 70
     1
102
RTVSPropertyOp9
 70
     1
102
RTVSPropertyOp10
 70
     1
102
RTVSPropertyOp11
 70
     1
102
RTVSPropertyOp12
 70
     1
102
RTVSPropertyOp13
 70
     1
102
RTVSPropertyOp14
 70
     1
102
RTVSPropertyOp15
 70
     1
102
RTVSPropertyOp16
 70
     1
102
RTVSPropertyOp17
 70
     1
102
RTVSPropertyOp18
 70
     1
102
RTVSPropertyOp19
 70
     1
102
RTVSPropertyOp20
 70
     1
102
RTVSPropertyOp21
 70
     1
102
RTVSPropertyOp22
 70
     1
102
RTVSPropertyOp23
 70
     1
102
RTVSPropertyOp24
 70
     1
102
RTVSPropertyOp25
 70
     1
102
RTVSPropertyOp26
 70
     1
102
RTVSPropertyOp27
 70
     1
  0
ENDSEC
  0
EOF
