0
SECTION
2
HEADER
9
$INSUNITS
70
1
9
$ACADVER
1
AC1014
9
$HANDSEED
5
FFFF
0
ENDSEC
0
SECTION
2
TABLES
0
TABLE
2
VPORT
5
8
100
AcDbSymbolTable
0
ENDTAB
0
TABLE
2
LTYPE
5
5
100
AcDbSymbolTable
0
LTYPE
5
14
100
AcDbSymbolTableRecord
100
AcDbLinetypeTableRecord
2
BYBLOCK
70
0
0
LTYPE
5
15
100
AcDbSymbolTableRecord
100
AcDbLinetypeTableRecord
2
BYLAYER
70
0
0
ENDTAB
0
TABLE
2
LAYER
5
2
100
AcDbSymbolTable
70
2
0
LAYER
5
50
100
AcDbSymbolTableRecord
100
AcDbLayerTableRecord
2
0
70
0
6
CONTINUOUS
0
ENDTAB
0
TABLE
2
STYLE
5
3
100
AcDbSymbolTable
70
1
0
STYLE
5
11
100
AcDbSymbolTableRecord
100
AcDbTextStyleTableRecord
2
STANDARD
70
0
0
ENDTAB
0
TABLE
2
VIEW
5
6
100
AcDbSymbolTable
70
0
0
ENDTAB
0
TABLE
2
UCS
5
7
100
AcDbSymbolTable
70
0
0
ENDTAB
0
TABLE
2
APPID
5
9
100
AcDbSymbolTable
70
2
0
APPID
5
12
100
AcDbSymbolTableRecord
100
AcDbRegAppTableRecord
2
ACAD
70
0
0
ENDTAB
0
TABLE
2
DIMSTYLE
5
A
100
AcDbSymbolTable
70
1
0
ENDTAB
0
TABLE
2
BLOCK_RECORD
5
1
100
AcDbSymbolTable
70
1
0
BLOCK_RECORD
5
1F
100
AcDbSymbolTableRecord
100
AcDbBlockTableRecord
2
*MODEL_SPACE
0
BLOCK_RECORD
5
1B
100
AcDbSymbolTableRecord
100
AcDbBlockTableRecord
2
*PAPER_SPACE
0
ENDTAB
0
ENDSEC
0
SECTION
2
BLOCKS
0
BLOCK
5
20
100
AcDbEntity
100
AcDbBlockBegin
2
*MODEL_SPACE
0
ENDBLK
5
21
100
AcDbEntity
100
AcDbBlockEnd
0
BLOCK
5
1C
100
AcDbEntity
100
AcDbBlockBegin
2
*PAPER_SPACE
0
ENDBLK
5
1D
100
AcDbEntity
100
AcDbBlockEnd
0
ENDSEC
0
SECTION
2
ENTITIES
0
SPLINE
5
100
100
AcDbEntity
8
0
100
AcDbSpline
70
0
71
3
72
15
73
11
74
0
42
0.000000001
43
0.0000000001
44
0.0000000001
40
0.86385223260870814
40
0.86385223260870814
40
0.86385223260870814
40
0.86385223260870814
40
0.90894596946143091
40
0.90894596946143091
40
1.0026288723756973
40
1.0026288723756973
40
1.0026288723756973
40
1.0963117752899638
40
1.0963117752899638
40
1.1414055121426865
40
1.1414055121426865
40
1.1414055121426865
40
1.1414055121426865
10
-13.656280000000002
20
2.7201376050328525
30
0
10
-13.656280000000002
20
2.7260554182681176
30
0
10
-13.655709514486253
20
2.7331338422240967
30
0
10
-13.653713145347469
20
2.75123625060629
30
0
10
-13.651554295426747
20
2.7658306557855288
30
0
10
-13.651554295426747
20
2.7781249999999997
30
0
10
-13.651554295426747
20
2.7904193442144702
30
0
10
-13.653713145347469
20
2.8050137493937095
30
0
10
-13.655709514486253
20
2.8231161577759023
30
0
10
-13.656280000000002
20
2.8301945817318814
30
0
10
-13.656280000000002
20
2.836112394967147
30
0
0
LINE
5
101
100
AcDbEntity
8
0
100
AcDbLine
10
-13.656280000000002
20
2.7201376050328525
30
0
11
-13.656280000000002
21
2.4999999999999996
31
0
0
LINE
5
102
100
AcDbEntity
8
0
100
AcDbLine
10
-13.656280000000002
20
2.4999999999999996
30
0
11
-12.706280000000001
21
2.4999999999999996
31
0
0
LINE
5
103
100
AcDbEntity
8
0
100
AcDbLine
10
-12.706280000000001
20
2.4999999999999996
30
0
11
-12.706280000000001
21
7.9499999999999984
31
0
0
LINE
5
104
100
AcDbEntity
8
0
100
AcDbLine
10
-12.706280000000001
20
7.9499999999999984
30
0
11
-22.043719999999997
21
7.9499999999999984
31
0
0
LINE
5
105
100
AcDbEntity
8
0
100
AcDbLine
10
-22.043719999999997
20
7.9499999999999984
30
0
11
-22.043719999999997
21
2.4999999999999996
31
0
0
LINE
5
106
100
AcDbEntity
8
0
100
AcDbLine
10
-22.043719999999997
20
2.4999999999999996
30
0
11
-21.093719999999994
21
2.4999999999999996
31
0
0
LINE
5
107
100
AcDbEntity
8
0
100
AcDbLine
10
-21.093719999999994
20
2.4999999999999996
30
0
11
-21.093719999999994
21
2.7201376050328525
31
0
0
SPLINE
5
108
100
AcDbEntity
8
0
100
AcDbSpline
70
0
71
3
72
15
73
11
74
0
42
0.000000001
43
0.0000000001
44
0.0000000001
40
0.86385223260870814
40
0.86385223260870814
40
0.86385223260870814
40
0.86385223260870814
40
0.90894596946143091
40
0.90894596946143091
40
1.0026288723756973
40
1.0026288723756973
40
1.0026288723756973
40
1.0963117752899638
40
1.0963117752899638
40
1.1414055121426865
40
1.1414055121426865
40
1.1414055121426865
40
1.1414055121426865
10
-21.093719999999994
20
2.836112394967147
30
0
10
-21.093719999999994
20
2.8301945817318814
30
0
10
-21.094290485513746
20
2.8231161577759023
30
0
10
-21.096286854652529
20
2.8050137493937095
30
0
10
-21.098445704573251
20
2.7904193442144702
30
0
10
-21.098445704573251
20
2.7781249999999997
30
0
10
-21.098445704573251
20
2.7658306557855288
30
0
10
-21.096286854652529
20
2.75123625060629
30
0
10
-21.094290485513746
20
2.7331338422240967
30
0
10
-21.093719999999994
20
2.7260554182681176
30
0
10
-21.093719999999994
20
2.7201376050328525
30
0
0
LINE
5
109
100
AcDbEntity
8
0
100
AcDbLine
10
-21.093719999999994
20
2.836112394967147
30
0
11
-21.093719999999994
21
6.6138876050328506
31
0
0
SPLINE
5
110
100
AcDbEntity
8
0
100
AcDbSpline
70
0
71
3
72
15
73
11
74
0
42
0.000000001
43
0.0000000001
44
0.0000000001
40
0.86385223260870958
40
0.86385223260870958
40
0.86385223260870958
40
0.86385223260870958
40
0.90894596946143158
40
0.90894596946143158
40
1.0026288723757022
40
1.0026288723757022
40
1.0026288723757022
40
1.0963117752899727
40
1.0963117752899727
40
1.1414055121426947
40
1.1414055121426947
40
1.1414055121426947
40
1.1414055121426947
10
-21.093719999999994
20
6.7298623949671477
30
0
10
-21.093719999999994
20
6.7239445817318817
30
0
10
-21.094290485513746
20
6.7168661577759039
30
0
10
-21.096286854652529
20
6.6987637493937102
30
0
10
-21.098445704573251
20
6.6841693442144701
30
0
10
-21.098445704573251
20
6.6718749999999991
30
0
10
-21.098445704573251
20
6.6595806557855282
30
0
10
-21.096286854652529
20
6.6449862506062871
30
0
10
-21.094290485513746
20
6.6268838422240943
30
0
10
-21.093719999999994
20
6.6198054182681156
30
0
10
-21.093719999999994
20
6.6138876050328506
30
0
0
LINE
5
111
100
AcDbEntity
8
0
100
AcDbLine
10
-21.093719999999994
20
6.7298623949671477
30
0
11
-21.093719999999994
21
6.9499999999999993
31
0
0
LINE
5
112
100
AcDbEntity
8
0
100
AcDbLine
10
-21.093719999999994
20
6.9499999999999993
30
0
11
-13.656280000000002
21
6.9499999999999993
31
0
0
LINE
5
113
100
AcDbEntity
8
0
100
AcDbLine
10
-13.656280000000002
20
6.9499999999999993
30
0
11
-13.656280000000002
21
6.7298623949671477
31
0
0
SPLINE
5
114
100
AcDbEntity
8
0
100
AcDbSpline
70
0
71
3
72
15
73
11
74
0
42
0.000000001
43
0.0000000001
44
0.0000000001
40
0.86385223260870958
40
0.86385223260870958
40
0.86385223260870958
40
0.86385223260870958
40
0.90894596946143158
40
0.90894596946143158
40
1.0026288723757022
40
1.0026288723757022
40
1.0026288723757022
40
1.0963117752899727
40
1.0963117752899727
40
1.1414055121426947
40
1.1414055121426947
40
1.1414055121426947
40
1.1414055121426947
10
-13.656280000000002
20
6.6138876050328506
30
0
10
-13.656280000000002
20
6.6198054182681156
30
0
10
-13.655709514486253
20
6.6268838422240943
30
0
10
-13.653713145347469
20
6.6449862506062871
30
0
10
-13.651554295426747
20
6.6595806557855282
30
0
10
-13.651554295426747
20
6.6718749999999991
30
0
10
-13.651554295426747
20
6.6841693442144701
30
0
10
-13.653713145347469
20
6.6987637493937102
30
0
10
-13.655709514486253
20
6.7168661577759039
30
0
10
-13.656280000000002
20
6.7239445817318817
30
0
10
-13.656280000000002
20
6.7298623949671477
30
0
0
LINE
5
115
100
AcDbEntity
8
0
100
AcDbLine
10
-13.656280000000002
20
6.6138876050328506
30
0
11
-13.656280000000006
21
2.8361123949671465
31
0
0
ENDSEC
0
SECTION
2
OBJECTS
0
DICTIONARY
5
C
100
AcDbDictionary
3
ACAD_GROUP
350
D
3
ACAD_MLINESTYLE
350
17
0
DICTIONARY
5
D
100
AcDbDictionary
0
DICTIONARY
5
1A
330
C
100
AcDbDictionary
0
DICTIONARY
5
17
100
AcDbDictionary
0
ENDSEC
0
EOF
